  0
SECTION
  2
HEADER
  9
$ACADVER
  1
AC1015
  9
$ACADMAINTVER
 70
     6
  9
$DWGCODEPAGE
  3
ANSI_1254
  9
$INSBASE
 10
0.0
 20
0.0
 30
0.0
  9
$EXTMIN
 10
0.0
 20
0.0
 30
0.0
  9
$EXTMAX
 10
279.4
 20
215.9
 30
0.0
  9
$LIMMIN
 10
0.0
 20
0.0
  9
$LIMMAX
 10
279.4
 20
215.9
  9
$ORTHOMODE
 70
     0
  9
$REGENMODE
 70
     1
  9
$FILLMODE
 70
     1
  9
$QTEXTMODE
 70
     0
  9
$MIRRTEXT
 70
     1
  9
$LTSCALE
 40
1.0
  9
$ATTMODE
 70
     1
  9
$TEXTSIZE
 40
3.5
  9
$TRACEWID
 40
1.0
  9
$TEXTSTYLE
  7
Standard
  9
$CLAYER
  8
0
  9
$CELTYPE
  6
ByLayer
  9
$CECOLOR
 62
   256
  9
$CELTSCALE
 40
1.0
  9
$DISPSILH
 70
     0
  9
$DIMSCALE
 40
1.0
  9
$DIMASZ
 40
3.5
  9
$DIMEXO
 40
1.0
  9
$DIMDLI
 40
3.75
  9
$DIMRND
 40
0.0
  9
$DIMDLE
 40
0.0
  9
$DIMEXE
 40
1.0
  9
$DIMTP
 40
0.0
  9
$DIMTM
 40
0.0
  9
$DIMTXT
 40
3.5
  9
$DIMCEN
 40
2.5
  9
$DIMTSZ
 40
0.0
  9
$DIMTOL
 70
     0
  9
$DIMLIM
 70
     0
  9
$DIMTIH
 70
     1
  9
$DIMTOH
 70
     1
  9
$DIMSE1
 70
     0
  9
$DIMSE2
 70
     0
  9
$DIMTAD
 70
     1
  9
$DIMZIN
 70
     0
  9
$DIMBLK
  1

  9
$DIMASO
 70
     1
  9
$DIMSHO
 70
     1
  9
$DIMPOST
  1

  9
$DIMAPOST
  1

  9
$DIMALT
 70
     0
  9
$DIMALTD
 70
     3
  9
$DIMALTF
 40
0.0393700787
  9
$DIMLFAC
 40
1.0
  9
$DIMTOFL
 70
     1
  9
$DIMTVP
 40
0.0
  9
$DIMTIX
 70
     0
  9
$DIMSOXD
 70
     0
  9
$DIMSAH
 70
     0
  9
$DIMBLK1
  1

  9
$DIMBLK2
  1

  9
$DIMSTYLE
  2
ISO-25
  9
$DIMCLRD
 70
     0
  9
$DIMCLRE
 70
     0
  9
$DIMCLRT
 70
     0
  9
$DIMTFAC
 40
1.0
  9
$DIMGAP
 40
1.524
  9
$DIMJUST
 70
     0
  9
$DIMSD1
 70
     0
  9
$DIMSD2
 70
     0
  9
$DIMTOLJ
 70
     0
  9
$DIMTZIN
 70
     0
  9
$DIMALTZ
 70
     0
  9
$DIMALTTZ
 70
     0
  9
$DIMUPT
 70
     0
  9
$DIMDEC
 70
     2
  9
$DIMTDEC
 70
     2
  9
$DIMALTU
 70
     2
  9
$DIMALTTD
 70
     3
  9
$DIMTXSTY
  7
Standard
  9
$DIMAUNIT
 70
     0
  9
$DIMADEC
 70
     2
  9
$DIMALTRND
 40
0.0
  9
$DIMAZIN
 70
     0
  9
$DIMDSEP
 70
    44
  9
$DIMATFIT
 70
     3
  9
$DIMFRAC
 70
     0
  9
$DIMLDRBLK
  1

  9
$DIMLUNIT
 70
     2
  9
$DIMLWD
 70
    -2
  9
$DIMLWE
 70
    -2
  9
$DIMTMOVE
 70
     0
  9
$LUNITS
 70
     2
  9
$LUPREC
 70
     2
  9
$SKETCHINC
 40
1.0
  9
$FILLETRAD
 40
10.0
  9
$AUNITS
 70
     0
  9
$AUPREC
 70
     2
  9
$MENU
  1
.
  9
$ELEVATION
 40
0.0
  9
$PELEVATION
 40
0.0
  9
$THICKNESS
 40
0.0
  9
$LIMCHECK
 70
     0
  9
$CHAMFERA
 40
0.0
  9
$CHAMFERB
 40
0.0
  9
$CHAMFERC
 40
0.0
  9
$CHAMFERD
 40
0.0
  9
$SKPOLY
 70
     0
  9
$TDCREATE
 40
2459741.592387835
  9
$TDUCREATE
 40
2459741.467387835
  9
$TDUPDATE
 40
2459741.592389722
  9
$TDUUPDATE
 40
2459741.467389722
  9
$TDINDWG
 40
0.0000000116
  9
$TDUSRTIMER
 40
0.0000000116
  9
$USRTIMER
 70
     1
  9
$ANGBASE
 50
0.0
  9
$ANGDIR
 70
     0
  9
$PDMODE
 70
     0
  9
$PDSIZE
 40
-1.0
  9
$PLINEWID
 40
0.0
  9
$SPLFRAME
 70
     0
  9
$SPLINETYPE
 70
     6
  9
$SPLINESEGS
 70
     8
  9
$HANDSEED
  5
121
  9
$SURFTAB1
 70
     6
  9
$SURFTAB2
 70
     6
  9
$SURFTYPE
 70
     6
  9
$SURFU
 70
     6
  9
$SURFV
 70
     6
  9
$UCSBASE
  2

  9
$UCSNAME
  2

  9
$UCSORG
 10
0.0
 20
0.0
 30
0.0
  9
$UCSXDIR
 10
1.0
 20
0.0
 30
0.0
  9
$UCSYDIR
 10
0.0
 20
1.0
 30
0.0
  9
$UCSORTHOREF
  2

  9
$UCSORTHOVIEW
 70
     0
  9
$UCSORGTOP
 10
0.0
 20
0.0
 30
0.0
  9
$UCSORGBOTTOM
 10
0.0
 20
0.0
 30
0.0
  9
$UCSORGLEFT
 10
0.0
 20
0.0
 30
0.0
  9
$UCSORGRIGHT
 10
0.0
 20
0.0
 30
0.0
  9
$UCSORGFRONT
 10
0.0
 20
0.0
 30
0.0
  9
$UCSORGBACK
 10
0.0
 20
0.0
 30
0.0
  9
$PUCSBASE
  2

  9
$PUCSNAME
  2

  9
$PUCSORG
 10
0.0
 20
0.0
 30
0.0
  9
$PUCSXDIR
 10
1.0
 20
0.0
 30
0.0
  9
$PUCSYDIR
 10
0.0
 20
1.0
 30
0.0
  9
$PUCSORTHOREF
  2

  9
$PUCSORTHOVIEW
 70
     0
  9
$PUCSORGTOP
 10
0.0
 20
0.0
 30
0.0
  9
$PUCSORGBOTTOM
 10
0.0
 20
0.0
 30
0.0
  9
$PUCSORGLEFT
 10
0.0
 20
0.0
 30
0.0
  9
$PUCSORGRIGHT
 10
0.0
 20
0.0
 30
0.0
  9
$PUCSORGFRONT
 10
0.0
 20
0.0
 30
0.0
  9
$PUCSORGBACK
 10
0.0
 20
0.0
 30
0.0
  9
$USERI1
 70
     0
  9
$USERI2
 70
     0
  9
$USERI3
 70
     0
  9
$USERI4
 70
     0
  9
$USERI5
 70
     0
  9
$USERR1
 40
0.0
  9
$USERR2
 40
0.0
  9
$USERR3
 40
0.0
  9
$USERR4
 40
0.0
  9
$USERR5
 40
0.0
  9
$WORLDVIEW
 70
     1
  9
$SHADEDGE
 70
     3
  9
$SHADEDIF
 70
    70
  9
$TILEMODE
 70
     1
  9
$MAXACTVP
 70
    64
  9
$PINSBASE
 10
0.0
 20
0.0
 30
0.0
  9
$PLIMCHECK
 70
     0
  9
$PEXTMIN
 10
1.0000000000E+20
 20
1.0000000000E+20
 30
1.0000000000E+20
  9
$PEXTMAX
 10
-1.0000000000E+20
 20
-1.0000000000E+20
 30
-1.0000000000E+20
  9
$PLIMMIN
 10
0.0
 20
0.0
  9
$PLIMMAX
 10
420.0
 20
297.0
  9
$UNITMODE
 70
     0
  9
$VISRETAIN
 70
     1
  9
$PLINEGEN
 70
     0
  9
$PSLTSCALE
 70
     1
  9
$TREEDEPTH
 70
  3020
  9
$CMLSTYLE
  2
Standard
  9
$CMLJUST
 70
     0
  9
$CMLSCALE
 40
20.0
  9
$PROXYGRAPHICS
 70
     1
  9
$MEASUREMENT
 70
     1
  9
$CELWEIGHT
370
    -1
  9
$ENDCAPS
280
     0
  9
$JOINSTYLE
280
     0
  9
$LWDISPLAY
290
     1
  9
$INSUNITS
 70
     4
  9
$HYPERLINKBASE
  1

  9
$STYLESHEET
  1

  9
$XEDIT
290
     1
  9
$CEPSNTYPE
380
     0
  9
$PSTYLEMODE
290
     1
  9
$FINGERPRINTGUID
  2
{e6a96c00-959b-4db8-b56f-c89163c252f2}
  9
$VERSIONGUID
  2
{FAEB1C32-E019-11D5-929B-00C0DF256EC4}
  9
$EXTNAMES
290
     1
  9
$PSVPSCALE
 40
0.0
  9
$OLESTARTUP
290
     0
  0
ENDSEC
  0
SECTION
  2
CLASSES
  0
CLASS
  1
ACDBDICTIONARYWDFLT
  2
AcDbDictionaryWithDefault
  3
ObjectDBX Classes
 90
        0
280
     0
281
     0
  0
CLASS
  1
VISUALSTYLE
  2
AcDbVisualStyle
  3
ObjectDBX Classes
 90
     4095
280
     0
281
     0
  0
CLASS
  1
MATERIAL
  2
AcDbMaterial
  3
ObjectDBX Classes
 90
     1153
280
     0
281
     0
  0
CLASS
  1
SCALE
  2
AcDbScale
  3
ObjectDBX Classes
 90
     1153
280
     0
281
     0
  0
CLASS
  1
TABLESTYLE
  2
AcDbTableStyle
  3
ObjectDBX Classes
 90
     4095
280
     0
281
     0
  0
CLASS
  1
MLEADERSTYLE
  2
AcDbMLeaderStyle
  3
ACDB_MLEADERSTYLE_CLASS
 90
     4095
280
     0
281
     0
  0
CLASS
  1
SUN
  2
AcDbSun
  3
SCENEOE
 90
     1153
280
     0
281
     0
  0
CLASS
  1
ACDBPLACEHOLDER
  2
AcDbPlaceHolder
  3
ObjectDBX Classes
 90
        0
280
     0
281
     0
  0
CLASS
  1
LAYOUT
  2
AcDbLayout
  3
ObjectDBX Classes
 90
        0
280
     0
281
     0
  0
ENDSEC
  0
SECTION
  2
TABLES
  0
TABLE
  2
VPORT
  5
8
330
0
100
AcDbSymbolTable
 70
     1
  0
VPORT
  5
29
330
8
100
AcDbSymbolTableRecord
100
AcDbViewportTableRecord
  2
*Active
 70
     0
 10
0.0
 20
0.0
 11
1.0
 21
1.0
 12
139.7
 22
107.95
 13
0.0
 23
0.0
 14
10.0
 24
10.0
 15
10.0
 25
10.0
 16
0.0
 26
0.0
 36
1.0
 17
0.0
 27
0.0
 37
0.0
 40
215.9
 41
1.2941176471
 42
50.0
 43
0.0
 44
0.0
 50
0.0
 51
0.0
 71
     0
 72
  2000
 73
     1
 74
     3
 75
     0
 76
     0
 77
     0
 78
     0
281
     0
 65
     1
110
0.0
120
0.0
130
0.0
111
1.0
121
0.0
131
0.0
112
0.0
122
1.0
132
0.0
 79
     0
146
0.0
  0
ENDTAB
  0
TABLE
  2
LTYPE
  5
5
330
0
100
AcDbSymbolTable
 70
     6
  0
LTYPE
  5
14
330
5
100
AcDbSymbolTableRecord
100
AcDbLinetypeTableRecord
  2
ByBlock
 70
     0
  3

 72
    65
 73
     0
 40
0.0
  0
LTYPE
  5
15
330
5
100
AcDbSymbolTableRecord
100
AcDbLinetypeTableRecord
  2
ByLayer
 70
     0
  3

 72
    65
 73
     0
 40
0.0
  0
LTYPE
  5
16
330
5
100
AcDbSymbolTableRecord
100
AcDbLinetypeTableRecord
  2
Continuous
 70
     0
  3
Solid line
 72
    65
 73
     0
 40
0.0
  0
LTYPE
  5
6E
330
5
100
AcDbSymbolTableRecord
100
AcDbLinetypeTableRecord
  2
HIDDEN
 70
     0
  3
Hidden __ __ __ __ __ __ __ __ __ __ __ __ __ __
 72
    65
 73
     2
 40
1.905
 49
1.27
 74
     0
 49
-0.635
 74
     0
  0
LTYPE
  5
6F
330
5
100
AcDbSymbolTableRecord
100
AcDbLinetypeTableRecord
  2
PHANTOM
 70
     0
  3
Phantom ______  __  __  ______  __  __  ______
 72
    65
 73
     6
 40
12.7
 49
6.35
 74
     0
 49
-1.27
 74
     0
 49
1.27
 74
     0
 49
-1.27
 74
     0
 49
1.27
 74
     0
 49
-1.27
 74
     0
  0
LTYPE
  5
70
330
5
100
AcDbSymbolTableRecord
100
AcDbLinetypeTableRecord
  2
CENTER
 70
     0
  3
Center ____ _ ____ _ ____ _ ____ _ ____ _ ____
 72
    65
 73
     4
 40
10.16
 49
6.35
 74
     0
 49
-1.27
 74
     0
 49
1.27
 74
     0
 49
-1.27
 74
     0
  0
LTYPE
  5
71
330
5
100
AcDbSymbolTableRecord
100
AcDbLinetypeTableRecord
  2
CENTERX2
 70
     0
  3
Center (2x) ________  __  ________  __  _____
 72
    65
 73
     4
 40
20.32
 49
12.7
 74
     0
 49
-2.54
 74
     0
 49
2.54
 74
     0
 49
-2.54
 74
     0
  0
LTYPE
  5
72
330
5
100
AcDbSymbolTableRecord
100
AcDbLinetypeTableRecord
  2
DOT2
 70
     0
  3
Dot (.5x) ........................................
 72
    65
 73
     2
 40
0.635
 49
0.0
 74
     0
 49
-0.635
 74
     0
  0
ENDTAB
  0
TABLE
  2
LAYER
  5
2
330
0
100
AcDbSymbolTable
 70
    17
  0
LAYER
  5
10
330
2
100
AcDbSymbolTableRecord
100
AcDbLayerTableRecord
  2
0
 70
     0
 62
     7
  6
Continuous
370
    -3
390
F
  0
LAYER
  5
73
330
2
100
AcDbSymbolTableRecord
100
AcDbLayerTableRecord
  2
FORMAT
 70
     0
 62
     7
  6
Continuous
370
    -3
390
F
  0
LAYER
  5
74
330
2
100
AcDbSymbolTableRecord
100
AcDbLayerTableRecord
  2
YARDIMCI_GEOMETRI
 70
     0
 62
    -6
  6
Continuous
290
     0
370
    -3
390
F
  0
LAYER
  5
75
330
2
100
AcDbSymbolTableRecord
100
AcDbLayerTableRecord
  2
SAYFA_CERCEVESI
 70
     0
 62
     7
  6
Continuous
370
    25
390
F
  0
LAYER
  5
76
330
2
100
AcDbSymbolTableRecord
100
AcDbLayerTableRecord
  2
ANTET
 70
     0
 62
     7
  6
Continuous
370
    -3
390
F
  0
LAYER
  5
77
330
2
100
AcDbSymbolTableRecord
100
AcDbLayerTableRecord
  2
OLCU
 70
     0
 62
   150
  6
Continuous
370
    -3
390
F
  0
LAYER
  5
78
330
2
100
AcDbSymbolTableRecord
100
AcDbLayerTableRecord
  2
METIN
 70
     0
 62
    96
  6
Continuous
370
    -3
390
F
  0
LAYER
  5
79
330
2
100
AcDbSymbolTableRecord
100
AcDbLayerTableRecord
  2
BALON
 70
     0
 62
     5
  6
Continuous
370
    -3
390
F
  0
LAYER
  5
7A
330
2
100
AcDbSymbolTableRecord
100
AcDbLayerTableRecord
  2
VURGU
 70
     0
 62
     7
  6
Continuous
370
    -3
390
F
  0
LAYER
  5
7B
330
2
100
AcDbSymbolTableRecord
100
AcDbLayerTableRecord
  2
SILIK
 70
     0
 62
     7
  6
Continuous
370
    -3
390
F
  0
LAYER
  5
7C
330
2
100
AcDbSymbolTableRecord
100
AcDbLayerTableRecord
  2
MODEL
 70
     0
 62
     7
  6
Continuous
370
    -3
390
F
  0
LAYER
  5
7D
330
2
100
AcDbSymbolTableRecord
100
AcDbLayerTableRecord
  2
DETAYLANDıRMA
 70
     0
 62
   190
  6
Continuous
370
    -3
390
F
  0
LAYER
  5
7E
330
2
100
AcDbSymbolTableRecord
100
AcDbLayerTableRecord
  2
TOLERANS
 70
     0
 62
   230
  6
Continuous
370
    -3
390
F
  0
LAYER
  5
7F
330
2
100
AcDbSymbolTableRecord
100
AcDbLayerTableRecord
  2
MERKEZ_CIZGILERI
 70
     0
 62
    30
  6
Continuous
370
    -3
390
F
  0
LAYER
  5
80
330
2
100
AcDbSymbolTableRecord
100
AcDbLayerTableRecord
  2
KESIT-DETAY_CIZGILERI
 70
     0
 62
     7
  6
Continuous
370
    -3
390
F
  0
LAYER
  5
81
330
2
100
AcDbSymbolTableRecord
100
AcDbLayerTableRecord
  2
\U+041E\U+0421\U+0415\U+0412\U+042B\U+0415
 70
     0
 62
     7
  6
Continuous
370
    -3
390
F
  0
LAYER
  5
82
330
2
100
AcDbSymbolTableRecord
100
AcDbLayerTableRecord
  2
\U+0412\U+041E\U+0414\U+042F\U+041D\U+042B\U+0415_\U+0417\U+041D\U+0410\U+041A\U+0418
 70
     0
 62
    11
  6
Continuous
370
    -3
390
F
  0
ENDTAB
  0
TABLE
  2
STYLE
  5
3
330
0
100
AcDbSymbolTable
 70
     1
  0
STYLE
  5
11
330
3
100
AcDbSymbolTableRecord
100
AcDbTextStyleTableRecord
  2
Standard
 70
     0
 40
0.0
 41
1.0
 50
0.0
 71
     0
 42
3.5
  3
txt
  4

  0
ENDTAB
  0
TABLE
  2
VIEW
  5
6
330
0
100
AcDbSymbolTable
 70
     0
  0
ENDTAB
  0
TABLE
  2
UCS
  5
7
330
0
100
AcDbSymbolTable
 70
     0
  0
ENDTAB
  0
TABLE
  2
APPID
  5
9
330
0
100
AcDbSymbolTable
 70
     1
  0
APPID
  5
12
330
9
100
AcDbSymbolTableRecord
100
AcDbRegAppTableRecord
  2
ACAD
 70
     0
  0
ENDTAB
  0
TABLE
  2
DIMSTYLE
  5
A
330
0
100
AcDbSymbolTable
 70
     1
100
AcDbDimStyleTable
  0
DIMSTYLE
105
27
330
A
100
AcDbSymbolTableRecord
100
AcDbDimStyleTableRecord
  2
ISO-25
 70
     0
 41
2.5
 42
0.625
 43
3.75
 44
1.25
 73
     0
 74
     0
 77
     1
 78
     8
140
2.5
141
2.5
143
0.0393700787
147
0.625
171
     3
172
     1
178
     0
271
     2
272
     2
274
     3
278
    44
283
     0
284
     8
340
11
  0
ENDTAB
  0
TABLE
  2
BLOCK_RECORD
  5
1
330
0
100
AcDbSymbolTable
 70
     6
  0
BLOCK_RECORD
  5
1F
330
1
100
AcDbSymbolTableRecord
100
AcDbBlockTableRecord
  2
*Model_Space
340
22
  0
BLOCK_RECORD
  5
1B
330
1
100
AcDbSymbolTableRecord
100
AcDbBlockTableRecord
  2
*Paper_Space
340
1E
  0
BLOCK_RECORD
  5
23
330
1
100
AcDbSymbolTableRecord
100
AcDbBlockTableRecord
  2
*Paper_Space0
340
26
  0
BLOCK_RECORD
  5
8F
330
1
100
AcDbSymbolTableRecord
100
AcDbBlockTableRecord
  2
SW_CENTERMARKSYMBOL_0
340
0
102
{BLKREFS
331
9A
102
}
  0
BLOCK_RECORD
  5
9B
330
1
100
AcDbSymbolTableRecord
100
AcDbBlockTableRecord
  2
SW_CENTERMARKSYMBOL_1
340
0
102
{BLKREFS
331
A6
102
}
  0
BLOCK_RECORD
  5
A7
330
1
100
AcDbSymbolTableRecord
100
AcDbBlockTableRecord
  2
SW_CENTERMARKSYMBOL_2
340
0
102
{BLKREFS
331
B2
102
}
  0
BLOCK_RECORD
  5
B3
330
1
100
AcDbSymbolTableRecord
100
AcDbBlockTableRecord
  2
SW_CENTERMARKSYMBOL_3
340
0
102
{BLKREFS
331
BE
102
}
  0
BLOCK_RECORD
  5
BF
330
1
100
AcDbSymbolTableRecord
100
AcDbBlockTableRecord
  2
SW_CENTERMARKSYMBOL_4
340
0
102
{BLKREFS
331
CA
102
}
  0
ENDTAB
  0
ENDSEC
  0
SECTION
  2
BLOCKS
  0
BLOCK
  5
20
330
1F
100
AcDbEntity
  8
0
100
AcDbBlockBegin
  2
*Model_Space
 70
     0
 10
0.0
 20
0.0
 30
0.0
  3
*Model_Space
  1

  0
ENDBLK
  5
21
330
1F
100
AcDbEntity
  8
0
100
AcDbBlockEnd
  0
BLOCK
  5
1C
330
1B
100
AcDbEntity
 67
     1
  8
0
100
AcDbBlockBegin
  2
*Paper_Space
 70
     0
 10
0.0
 20
0.0
 30
0.0
  3
*Paper_Space
  1

  0
ENDBLK
  5
1D
330
1B
100
AcDbEntity
 67
     1
  8
0
100
AcDbBlockEnd
  0
BLOCK
  5
24
330
23
100
AcDbEntity
  8
0
100
AcDbBlockBegin
  2
*Paper_Space0
 70
     0
 10
0.0
 20
0.0
 30
0.0
  3
*Paper_Space0
  1

  0
ENDBLK
  5
25
330
23
100
AcDbEntity
  8
0
100
AcDbBlockEnd
  0
BLOCK
  5
90
330
8F
100
AcDbEntity
  8
0
100
AcDbBlockBegin
  2
SW_CENTERMARKSYMBOL_0
 70
     0
 10
0.0
 20
0.0
 30
0.0
  3
SW_CENTERMARKSYMBOL_0
  1

  0
LINE
  5
92
330
8F
100
AcDbEntity
  8
FORMAT
 62
     0
100
AcDbLine
 10
0.0
 20
0.0
 30
0.0
 11
0.0
 21
2.5
 31
0.0
  0
LINE
  5
93
330
8F
100
AcDbEntity
  8
FORMAT
 62
     0
100
AcDbLine
 10
0.0
 20
0.0
 30
0.0
 11
-2.5
 21
0.0
 31
0.0
  0
LINE
  5
94
330
8F
100
AcDbEntity
  8
FORMAT
 62
     0
100
AcDbLine
 10
0.0
 20
0.0
 30
0.0
 11
0.0
 21
-2.5
 31
0.0
  0
LINE
  5
95
330
8F
100
AcDbEntity
  8
FORMAT
 62
     0
100
AcDbLine
 10
0.0
 20
0.0
 30
0.0
 11
2.5
 21
0.0
 31
0.0
  0
LINE
  5
96
330
8F
100
AcDbEntity
  8
FORMAT
 62
     0
100
AcDbLine
 10
0.0
 20
5.0
 30
0.0
 11
0.0
 21
55.0
 31
0.0
  0
LINE
  5
97
330
8F
100
AcDbEntity
  8
FORMAT
 62
     0
100
AcDbLine
 10
-5.0
 20
0.0
 30
0.0
 11
-55.0
 21
0.0
 31
0.0
  0
LINE
  5
98
330
8F
100
AcDbEntity
  8
FORMAT
 62
     0
100
AcDbLine
 10
0.0
 20
-5.0
 30
0.0
 11
0.0
 21
-55.0
 31
0.0
  0
LINE
  5
99
330
8F
100
AcDbEntity
  8
FORMAT
 62
     0
100
AcDbLine
 10
5.0
 20
0.0
 30
0.0
 11
55.0
 21
0.0
 31
0.0
  0
ENDBLK
  5
91
330
8F
100
AcDbEntity
  8
0
100
AcDbBlockEnd
  0
BLOCK
  5
9C
330
9B
100
AcDbEntity
  8
0
100
AcDbBlockBegin
  2
SW_CENTERMARKSYMBOL_1
 70
     0
 10
0.0
 20
0.0
 30
0.0
  3
SW_CENTERMARKSYMBOL_1
  1

  0
LINE
  5
9E
330
9B
100
AcDbEntity
  8
FORMAT
 62
     0
100
AcDbLine
 10
0.0
 20
0.0
 30
0.0
 11
0.0
 21
2.5
 31
0.0
  0
LINE
  5
9F
330
9B
100
AcDbEntity
  8
FORMAT
 62
     0
100
AcDbLine
 10
0.0
 20
0.0
 30
0.0
 11
-2.5
 21
0.0
 31
0.0
  0
LINE
  5
A0
330
9B
100
AcDbEntity
  8
FORMAT
 62
     0
100
AcDbLine
 10
0.0
 20
0.0
 30
0.0
 11
0.0
 21
-2.5
 31
0.0
  0
LINE
  5
A1
330
9B
100
AcDbEntity
  8
FORMAT
 62
     0
100
AcDbLine
 10
0.0
 20
0.0
 30
0.0
 11
2.5
 21
0.0
 31
0.0
  0
LINE
  5
A2
330
9B
100
AcDbEntity
  8
FORMAT
 62
     0
100
AcDbLine
 10
0.0
 20
5.0
 30
0.0
 11
0.0
 21
9.5
 31
0.0
  0
LINE
  5
A3
330
9B
100
AcDbEntity
  8
FORMAT
 62
     0
100
AcDbLine
 10
-5.0
 20
0.0
 30
0.0
 11
-9.5
 21
0.0
 31
0.0
  0
LINE
  5
A4
330
9B
100
AcDbEntity
  8
FORMAT
 62
     0
100
AcDbLine
 10
0.0
 20
-5.0
 30
0.0
 11
0.0
 21
-9.5
 31
0.0
  0
LINE
  5
A5
330
9B
100
AcDbEntity
  8
FORMAT
 62
     0
100
AcDbLine
 10
5.0
 20
0.0
 30
0.0
 11
9.5
 21
0.0
 31
0.0
  0
ENDBLK
  5
9D
330
9B
100
AcDbEntity
  8
0
100
AcDbBlockEnd
  0
BLOCK
  5
A8
330
A7
100
AcDbEntity
  8
0
100
AcDbBlockBegin
  2
SW_CENTERMARKSYMBOL_2
 70
     0
 10
0.0
 20
0.0
 30
0.0
  3
SW_CENTERMARKSYMBOL_2
  1

  0
LINE
  5
AA
330
A7
100
AcDbEntity
  8
FORMAT
 62
     0
100
AcDbLine
 10
0.0
 20
0.0
 30
0.0
 11
0.0
 21
2.5
 31
0.0
  0
LINE
  5
AB
330
A7
100
AcDbEntity
  8
FORMAT
 62
     0
100
AcDbLine
 10
0.0
 20
0.0
 30
0.0
 11
-2.5
 21
0.0
 31
0.0
  0
LINE
  5
AC
330
A7
100
AcDbEntity
  8
FORMAT
 62
     0
100
AcDbLine
 10
0.0
 20
0.0
 30
0.0
 11
0.0
 21
-2.5
 31
0.0
  0
LINE
  5
AD
330
A7
100
AcDbEntity
  8
FORMAT
 62
     0
100
AcDbLine
 10
0.0
 20
0.0
 30
0.0
 11
2.5
 21
0.0
 31
0.0
  0
LINE
  5
AE
330
A7
100
AcDbEntity
  8
FORMAT
 62
     0
100
AcDbLine
 10
0.0
 20
5.0
 30
0.0
 11
0.0
 21
9.5
 31
0.0
  0
LINE
  5
AF
330
A7
100
AcDbEntity
  8
FORMAT
 62
     0
100
AcDbLine
 10
-5.0
 20
0.0
 30
0.0
 11
-9.5
 21
0.0
 31
0.0
  0
LINE
  5
B0
330
A7
100
AcDbEntity
  8
FORMAT
 62
     0
100
AcDbLine
 10
0.0
 20
-5.0
 30
0.0
 11
0.0
 21
-9.5
 31
0.0
  0
LINE
  5
B1
330
A7
100
AcDbEntity
  8
FORMAT
 62
     0
100
AcDbLine
 10
5.0
 20
0.0
 30
0.0
 11
9.5
 21
0.0
 31
0.0
  0
ENDBLK
  5
A9
330
A7
100
AcDbEntity
  8
0
100
AcDbBlockEnd
  0
BLOCK
  5
B4
330
B3
100
AcDbEntity
  8
0
100
AcDbBlockBegin
  2
SW_CENTERMARKSYMBOL_3
 70
     0
 10
0.0
 20
0.0
 30
0.0
  3
SW_CENTERMARKSYMBOL_3
  1

  0
LINE
  5
B6
330
B3
100
AcDbEntity
  8
FORMAT
 62
     0
100
AcDbLine
 10
0.0
 20
0.0
 30
0.0
 11
0.0
 21
2.5
 31
0.0
  0
LINE
  5
B7
330
B3
100
AcDbEntity
  8
FORMAT
 62
     0
100
AcDbLine
 10
0.0
 20
0.0
 30
0.0
 11
-2.5
 21
0.0
 31
0.0
  0
LINE
  5
B8
330
B3
100
AcDbEntity
  8
FORMAT
 62
     0
100
AcDbLine
 10
0.0
 20
0.0
 30
0.0
 11
0.0
 21
-2.5
 31
0.0
  0
LINE
  5
B9
330
B3
100
AcDbEntity
  8
FORMAT
 62
     0
100
AcDbLine
 10
0.0
 20
0.0
 30
0.0
 11
2.5
 21
0.0
 31
0.0
  0
LINE
  5
BA
330
B3
100
AcDbEntity
  8
FORMAT
 62
     0
100
AcDbLine
 10
0.0
 20
5.0
 30
0.0
 11
0.0
 21
9.5
 31
0.0
  0
LINE
  5
BB
330
B3
100
AcDbEntity
  8
FORMAT
 62
     0
100
AcDbLine
 10
-5.0
 20
0.0
 30
0.0
 11
-9.5
 21
0.0
 31
0.0
  0
LINE
  5
BC
330
B3
100
AcDbEntity
  8
FORMAT
 62
     0
100
AcDbLine
 10
0.0
 20
-5.0
 30
0.0
 11
0.0
 21
-9.5
 31
0.0
  0
LINE
  5
BD
330
B3
100
AcDbEntity
  8
FORMAT
 62
     0
100
AcDbLine
 10
5.0
 20
0.0
 30
0.0
 11
9.5
 21
0.0
 31
0.0
  0
ENDBLK
  5
B5
330
B3
100
AcDbEntity
  8
0
100
AcDbBlockEnd
  0
BLOCK
  5
C0
330
BF
100
AcDbEntity
  8
0
100
AcDbBlockBegin
  2
SW_CENTERMARKSYMBOL_4
 70
     0
 10
0.0
 20
0.0
 30
0.0
  3
SW_CENTERMARKSYMBOL_4
  1

  0
LINE
  5
C2
330
BF
100
AcDbEntity
  8
FORMAT
 62
     0
100
AcDbLine
 10
0.0
 20
0.0
 30
0.0
 11
0.0
 21
2.5
 31
0.0
  0
LINE
  5
C3
330
BF
100
AcDbEntity
  8
FORMAT
 62
     0
100
AcDbLine
 10
0.0
 20
0.0
 30
0.0
 11
-2.5
 21
0.0
 31
0.0
  0
LINE
  5
C4
330
BF
100
AcDbEntity
  8
FORMAT
 62
     0
100
AcDbLine
 10
0.0
 20
0.0
 30
0.0
 11
0.0
 21
-2.5
 31
0.0
  0
LINE
  5
C5
330
BF
100
AcDbEntity
  8
FORMAT
 62
     0
100
AcDbLine
 10
0.0
 20
0.0
 30
0.0
 11
2.5
 21
0.0
 31
0.0
  0
LINE
  5
C6
330
BF
100
AcDbEntity
  8
FORMAT
 62
     0
100
AcDbLine
 10
0.0
 20
5.0
 30
0.0
 11
0.0
 21
9.5
 31
0.0
  0
LINE
  5
C7
330
BF
100
AcDbEntity
  8
FORMAT
 62
     0
100
AcDbLine
 10
-5.0
 20
0.0
 30
0.0
 11
-9.5
 21
0.0
 31
0.0
  0
LINE
  5
C8
330
BF
100
AcDbEntity
  8
FORMAT
 62
     0
100
AcDbLine
 10
0.0
 20
-5.0
 30
0.0
 11
0.0
 21
-9.5
 31
0.0
  0
LINE
  5
C9
330
BF
100
AcDbEntity
  8
FORMAT
 62
     0
100
AcDbLine
 10
5.0
 20
0.0
 30
0.0
 11
9.5
 21
0.0
 31
0.0
  0
ENDBLK
  5
C1
330
BF
100
AcDbEntity
  8
0
100
AcDbBlockEnd
  0
ENDSEC
  0
SECTION
  2
ENTITIES
  0
CIRCLE
  5
83
330
1F
100
AcDbEntity
  8
0
  6
Continuous
 62
     7
370
    25
100
AcDbCircle
 10
136.295515707
 20
91.2038201562
 30
0.0
 40
8.0
  0
CIRCLE
  5
84
330
1F
100
AcDbEntity
  8
0
  6
Continuous
 62
     7
370
    25
100
AcDbCircle
 10
136.295515707
 20
166.2038201561
 30
0.0
 40
8.0
  0
CIRCLE
  5
85
330
1F
100
AcDbEntity
  8
0
  6
Continuous
 62
     7
370
    25
100
AcDbCircle
 10
136.295515707
 20
128.7038201561
 30
0.0
 40
51.5
  0
CIRCLE
  5
86
330
1F
100
AcDbEntity
  8
0
  6
Continuous
 62
     7
370
    25
100
AcDbCircle
 10
136.295515707
 20
128.7038201561
 30
0.0
 40
18.0
  0
CIRCLE
  5
87
330
1F
100
AcDbEntity
  8
0
  6
Continuous
 62
     7
370
    25
100
AcDbCircle
 10
173.795515707
 20
128.7038201561
 30
0.0
 40
8.0
  0
CIRCLE
  5
88
330
1F
100
AcDbEntity
  8
0
  6
Continuous
 62
     7
370
    25
100
AcDbCircle
 10
98.795515707
 20
128.7038201562
 30
0.0
 40
8.0
  0
CIRCLE
  5
89
330
1F
100
AcDbEntity
  8
0
  6
Continuous
 62
     7
370
    25
100
AcDbCircle
 10
136.295515707
 20
128.7038201561
 30
0.0
 40
17.0
  0
CIRCLE
  5
8A
330
1F
100
AcDbEntity
  8
0
  6
Continuous
 62
     7
370
    25
100
AcDbCircle
 10
136.295515707
 20
128.7038201561
 30
0.0
 40
52.5
  0
CIRCLE
  5
8B
330
1F
100
AcDbEntity
  8
0
  6
Continuous
 62
     7
370
    25
100
AcDbCircle
 10
136.295515707
 20
166.2038201561
 30
0.0
 40
7.0
  0
CIRCLE
  5
8C
330
1F
100
AcDbEntity
  8
0
  6
Continuous
 62
     7
370
    25
100
AcDbCircle
 10
98.795515707
 20
128.7038201562
 30
0.0
 40
7.0
  0
CIRCLE
  5
8D
330
1F
100
AcDbEntity
  8
0
  6
Continuous
 62
     7
370
    25
100
AcDbCircle
 10
173.795515707
 20
128.7038201561
 30
0.0
 40
7.0
  0
CIRCLE
  5
8E
330
1F
100
AcDbEntity
  8
0
  6
Continuous
 62
     7
370
    25
100
AcDbCircle
 10
136.295515707
 20
91.2038201562
 30
0.0
 40
7.0
  0
INSERT
  5
9A
330
1F
100
AcDbEntity
  8
FORMAT
 62
     7
100
AcDbBlockReference
  2
SW_CENTERMARKSYMBOL_0
 10
136.295515707
 20
128.7038201561
 30
0.0
  0
INSERT
  5
A6
330
1F
100
AcDbEntity
  8
FORMAT
 62
     7
100
AcDbBlockReference
  2
SW_CENTERMARKSYMBOL_1
 10
136.295515707
 20
166.2038201561
 30
0.0
  0
INSERT
  5
B2
330
1F
100
AcDbEntity
  8
FORMAT
 62
     7
100
AcDbBlockReference
  2
SW_CENTERMARKSYMBOL_2
 10
173.795515707
 20
128.7038201561
 30
0.0
  0
INSERT
  5
BE
330
1F
100
AcDbEntity
  8
FORMAT
 62
     7
100
AcDbBlockReference
  2
SW_CENTERMARKSYMBOL_3
 10
136.295515707
 20
91.2038201562
 30
0.0
  0
INSERT
  5
CA
330
1F
100
AcDbEntity
  8
FORMAT
 62
     7
100
AcDbBlockReference
  2
SW_CENTERMARKSYMBOL_4
 10
98.795515707
 20
128.7038201562
 30
0.0
  0
ARC
  5
CB
330
1F
100
AcDbEntity
  8
0
  6
Continuous
 62
     7
370
    25
100
AcDbCircle
 10
22.9962898777
 20
77.2038201561
 30
0.0
 40
1.0
100
AcDbArc
 50
270.0
 51
0.0
  0
ARC
  5
CC
330
1F
100
AcDbEntity
  8
0
  6
Continuous
 62
     7
370
    25
100
AcDbCircle
 10
22.9962898777
 20
180.2038201561
 30
0.0
 40
1.0
100
AcDbArc
 50
0.0
 51
90.0
  0
LINE
  5
CD
330
1F
100
AcDbEntity
  8
0
  6
Continuous
 62
     7
370
    25
100
AcDbLine
 10
22.9962898777
 20
181.2038201561
 30
0.0
 11
12.9962898777
 21
181.2038201561
 31
0.0
  0
LINE
  5
CE
330
1F
100
AcDbEntity
  8
0
  6
Continuous
 62
     7
370
    25
100
AcDbLine
 10
12.9962898777
 20
76.2038201561
 30
0.0
 11
22.9962898777
 21
76.2038201561
 31
0.0
  0
ARC
  5
CF
330
1F
100
AcDbEntity
  8
0
  6
Continuous
 62
     7
370
    25
100
AcDbCircle
 10
12.9962898777
 20
77.2038201561
 30
0.0
 40
1.0
100
AcDbArc
 50
180.0
 51
270.0
  0
ARC
  5
D0
330
1F
100
AcDbEntity
  8
0
  6
Continuous
 62
     7
370
    25
100
AcDbCircle
 10
12.9962898777
 20
180.2038201561
 30
0.0
 40
1.0
100
AcDbArc
 50
90.0
 51
180.0
  0
LINE
  5
D1
330
1F
100
AcDbEntity
  8
0
  6
Continuous
 62
     7
370
    25
100
AcDbLine
 10
23.9962898777
 20
128.7038201561
 30
0.0
 11
23.9962898777
 21
77.2038201561
 31
0.0
  0
LINE
  5
D2
330
1F
100
AcDbEntity
  8
0
  6
Continuous
 62
     7
370
    25
100
AcDbLine
 10
23.9962898777
 20
180.2038201561
 30
0.0
 11
23.9962898777
 21
128.7038201561
 31
0.0
  0
LINE
  5
D3
330
1F
100
AcDbEntity
  8
0
  6
Continuous
 62
     7
370
    25
100
AcDbLine
 10
11.9962898777
 20
128.7038201561
 30
0.0
 11
11.9962898777
 21
180.2038201561
 31
0.0
  0
LINE
  5
D4
330
1F
100
AcDbEntity
  8
0
  6
Continuous
 62
     7
370
    25
100
AcDbLine
 10
11.9962898777
 20
77.2038201561
 30
0.0
 11
11.9962898777
 21
128.7038201561
 31
0.0
  0
LINE
  5
D5
330
1F
100
AcDbEntity
  8
0
  6
Continuous
 62
     1
370
    25
100
AcDbLine
 10
22.9962898777
 20
128.7038201561
 30
0.0
 11
22.9962898777
 21
181.2038201561
 31
0.0
  0
LINE
  5
D6
330
1F
100
AcDbEntity
  8
0
  6
Continuous
 62
     1
370
    25
100
AcDbLine
 10
22.9962898777
 20
76.2038201561
 30
0.0
 11
22.9962898777
 21
128.7038201561
 31
0.0
  0
LINE
  5
D7
330
1F
100
AcDbEntity
  8
0
  6
Continuous
 62
     1
370
    25
100
AcDbLine
 10
12.9962898777
 20
128.7038201561
 30
0.0
 11
12.9962898777
 21
76.2038201561
 31
0.0
  0
LINE
  5
D8
330
1F
100
AcDbEntity
  8
0
  6
Continuous
 62
     1
370
    25
100
AcDbLine
 10
12.9962898777
 20
181.2038201561
 30
0.0
 11
12.9962898777
 21
128.7038201561
 31
0.0
  0
ARC
  5
D9
330
1F
100
AcDbEntity
  8
0
  6
Continuous
 62
     7
370
    25
100
AcDbCircle
 10
252.8662307564
 20
180.2038201561
 30
0.0
 40
1.0
100
AcDbArc
 50
90.0
 51
180.0
  0
ARC
  5
DA
330
1F
100
AcDbEntity
  8
0
  6
Continuous
 62
     7
370
    25
100
AcDbCircle
 10
252.8662307564
 20
77.2038201561
 30
0.0
 40
1.0
100
AcDbArc
 50
180.0
 51
270.0
  0
LINE
  5
DB
330
1F
100
AcDbEntity
  8
0
  6
Continuous
 62
     7
370
    25
100
AcDbLine
 10
252.8662307564
 20
76.2038201561
 30
0.0
 11
262.8662307564
 21
76.2038201561
 31
0.0
  0
LINE
  5
DC
330
1F
100
AcDbEntity
  8
0
  6
Continuous
 62
     7
370
    25
100
AcDbLine
 10
262.8662307564
 20
181.2038201561
 30
0.0
 11
252.8662307564
 21
181.2038201561
 31
0.0
  0
ARC
  5
DD
330
1F
100
AcDbEntity
  8
0
  6
Continuous
 62
     7
370
    25
100
AcDbCircle
 10
262.8662307564
 20
180.2038201561
 30
0.0
 40
1.0
100
AcDbArc
 50
0.0
 51
90.0
  0
ARC
  5
DE
330
1F
100
AcDbEntity
  8
0
  6
Continuous
 62
     7
370
    25
100
AcDbCircle
 10
262.8662307564
 20
77.2038201561
 30
0.0
 40
1.0
100
AcDbArc
 50
270.0
 51
0.0
  0
LINE
  5
DF
330
1F
100
AcDbEntity
  8
0
  6
Continuous
 62
     7
370
    25
100
AcDbLine
 10
251.8662307564
 20
77.2038201561
 30
0.0
 11
251.8662307564
 21
180.2038201561
 31
0.0
  0
LINE
  5
E0
330
1F
100
AcDbEntity
  8
0
  6
Continuous
 62
     7
370
    25
100
AcDbLine
 10
263.8662307564
 20
180.2038201561
 30
0.0
 11
263.8662307564
 21
77.2038201561
 31
0.0
  0
LINE
  5
E1
330
1F
100
AcDbEntity
  8
0
  6
Continuous
 62
     1
370
    25
100
AcDbLine
 10
252.8662307564
 20
181.2038201561
 30
0.0
 11
252.8662307564
 21
76.2038201561
 31
0.0
  0
LINE
  5
E2
330
1F
100
AcDbEntity
  8
0
  6
Continuous
 62
     1
370
    25
100
AcDbLine
 10
262.8662307564
 20
76.2038201561
 30
0.0
 11
262.8662307564
 21
181.2038201561
 31
0.0
  0
ARC
  5
E3
330
1F
100
AcDbEntity
  8
0
  6
Continuous
 62
     7
370
    25
100
AcDbCircle
 10
84.795515707
 20
218.134797488
 30
0.0
 40
1.0
100
AcDbArc
 50
180.0
 51
270.0
  0
ARC
  5
E4
330
1F
100
AcDbEntity
  8
0
  6
Continuous
 62
     7
370
    25
100
AcDbCircle
 10
187.795515707
 20
218.134797488
 30
0.0
 40
1.0
100
AcDbArc
 50
270.0
 51
0.0
  0
LINE
  5
E5
330
1F
100
AcDbEntity
  8
0
  6
Continuous
 62
     7
370
    25
100
AcDbLine
 10
188.795515707
 20
218.134797488
 30
0.0
 11
188.795515707
 21
228.134797488
 31
0.0
  0
LINE
  5
E6
330
1F
100
AcDbEntity
  8
0
  6
Continuous
 62
     7
370
    25
100
AcDbLine
 10
83.795515707
 20
228.134797488
 30
0.0
 11
83.795515707
 21
218.134797488
 31
0.0
  0
ARC
  5
E7
330
1F
100
AcDbEntity
  8
0
  6
Continuous
 62
     7
370
    25
100
AcDbCircle
 10
84.795515707
 20
228.134797488
 30
0.0
 40
1.0
100
AcDbArc
 50
90.0
 51
180.0
  0
ARC
  5
E8
330
1F
100
AcDbEntity
  8
0
  6
Continuous
 62
     7
370
    25
100
AcDbCircle
 10
187.795515707
 20
228.134797488
 30
0.0
 40
1.0
100
AcDbArc
 50
0.0
 51
90.0
  0
LINE
  5
E9
330
1F
100
AcDbEntity
  8
0
  6
Continuous
 62
     7
370
    25
100
AcDbLine
 10
187.795515707
 20
217.134797488
 30
0.0
 11
84.7955157074
 21
217.134797488
 31
0.0
  0
LINE
  5
EA
330
1F
100
AcDbEntity
  8
0
  6
Continuous
 62
     7
370
    25
100
AcDbLine
 10
84.7955157074
 20
229.134797488
 30
0.0
 11
187.795515707
 21
229.134797488
 31
0.0
  0
LINE
  5
EB
330
1F
100
AcDbEntity
  8
0
  6
Continuous
 62
     1
370
    25
100
AcDbLine
 10
83.795515707
 20
218.134797488
 30
0.0
 11
188.795515707
 21
218.134797488
 31
0.0
  0
LINE
  5
EC
330
1F
100
AcDbEntity
  8
0
  6
Continuous
 62
     1
370
    25
100
AcDbLine
 10
188.795515707
 20
228.134797488
 30
0.0
 11
83.795515707
 21
228.134797488
 31
0.0
  0
ARC
  5
ED
330
1F
100
AcDbEntity
  8
0
  6
Continuous
 62
     7
370
    25
100
AcDbCircle
 10
187.795515707
 20
4.4544396028
 30
0.0
 40
1.0
100
AcDbArc
 50
0.0
 51
90.0
  0
ARC
  5
EE
330
1F
100
AcDbEntity
  8
0
  6
Continuous
 62
     7
370
    25
100
AcDbCircle
 10
84.795515707
 20
4.4544396028
 30
0.0
 40
1.0
100
AcDbArc
 50
90.0
 51
180.0
  0
LINE
  5
EF
330
1F
100
AcDbEntity
  8
0
  6
Continuous
 62
     7
370
    25
100
AcDbLine
 10
83.795515707
 20
4.4544396028
 30
0.0
 11
83.795515707
 21
-5.5455603972
 31
0.0
  0
LINE
  5
F0
330
1F
100
AcDbEntity
  8
0
  6
Continuous
 62
     7
370
    25
100
AcDbLine
 10
188.795515707
 20
-5.5455603972
 30
0.0
 11
188.795515707
 21
4.4544396028
 31
0.0
  0
ARC
  5
F1
330
1F
100
AcDbEntity
  8
0
  6
Continuous
 62
     7
370
    25
100
AcDbCircle
 10
187.795515707
 20
-5.5455603972
 30
0.0
 40
1.000000000000001
100
AcDbArc
 50
270.0
 51
0.0
  0
ARC
  5
F2
330
1F
100
AcDbEntity
  8
0
  6
Continuous
 62
     7
370
    25
100
AcDbCircle
 10
84.795515707
 20
-5.5455603972
 30
0.0
 40
1.000000000000001
100
AcDbArc
 50
180.0
 51
270.0
  0
LINE
  5
F3
330
1F
100
AcDbEntity
  8
0
  6
Continuous
 62
     7
370
    25
100
AcDbLine
 10
84.7955157074
 20
5.4544396028
 30
0.0
 11
187.795515707
 21
5.4544396028
 31
0.0
  0
LINE
  5
F4
330
1F
100
AcDbEntity
  8
0
  6
Continuous
 62
     7
370
    25
100
AcDbLine
 10
187.795515707
 20
-6.5455603972
 30
0.0
 11
84.7955157074
 21
-6.5455603972
 31
0.0
  0
LINE
  5
F5
330
1F
100
AcDbEntity
  8
0
  6
Continuous
 62
     1
370
    25
100
AcDbLine
 10
188.795515707
 20
4.4544396028
 30
0.0
 11
83.795515707
 21
4.4544396028
 31
0.0
  0
LINE
  5
F6
330
1F
100
AcDbEntity
  8
0
  6
Continuous
 62
     1
370
    25
100
AcDbLine
 10
83.795515707
 20
-5.5455603972
 30
0.0
 11
188.795515707
 21
-5.5455603972
 31
0.0
  0
SPLINE
  5
F7
330
1F
100
AcDbEntity
  8
0
  6
Continuous
 62
     7
370
    25
100
AcDbSpline
210
0.0
220
0.0
230
1.0
 70
     8
 71
     3
 72
    80
 73
    76
 74
     0
 42
0.00000001
 43
0.00000001
 40
0.0
 40
0.0
 40
0.0
 40
0.0
 40
0.0007886360657717
 40
0.0145157294539219
 40
0.0282542759576082
 40
0.0420112186810488
 40
0.0557919913082771
 40
0.0696002215196698
 40
0.0834376579517812
 40
0.0973043014605514
 40
0.1111986910433983
 40
0.125118278610086
 40
0.1390598263937967
 40
0.1530197731628186
 40
0.1669945346447274
 40
0.1809807234636555
 40
0.1949752898930476
 40
0.2089755948656408
 40
0.2229794311683343
 40
0.2369850090227023
 40
0.250990688293948
 40
0.2649953352203064
 40
0.278998245251826
 40
0.2929989344269722
 40
0.3069970970790796
 40
0.3209925693289179
 40
0.3349852984337121
 40
0.3489753176049828
 40
0.3629627256826787
 40
0.3769476709765499
 40
0.3909303385960386
 40
0.4049109406464347
 40
0.4188897087452415
 40
0.4328668883932829
 40
0.4468427348113729
 40
0.460817509920992
 40
0.4747914802047579
 40
0.4887649152294236
 40
0.5027380866510013
 40
0.5167112675493679
 40
0.5306846689284102
 40
0.544658537205922
 40
0.5586331473310152
 40
0.5726087739958966
 40
0.5865856908481216
 40
0.6005641693153447
 40
0.6145444768731054
 40
0.628526874557766
 40
0.6425116134845515
 40
0.6564989300777517
 40
0.6704890396561419
 40
0.6844821279421174
 40
0.6984783399800175
 40
0.7124777658632211
 40
0.7264804225912033
 40
0.7404862313258808
 40
0.7544949893217691
 40
0.768506335915378
 40
0.7825197122465138
 40
0.7965343149467988
 40
0.8105487022054503
 40
0.8245612056188145
 40
0.8385698379332962
 40
0.852572164325754
 40
0.8665652947945168
 40
0.8805459186984805
 40
0.8945103990857951
 40
0.9084549432166124
 40
0.9223758592456713
 40
0.9362698959793193
 40
0.9501346432506794
 40
0.9639689479091078
 40
0.9777732808748665
 40
0.9915499818701372
 40
1.0
 40
1.0
 40
1.0
 40
1.0
 10
288.9690088725584
 20
64.1564873291709
 30
0.0
 10
288.9465870108847
 20
64.1670420745396
 30
0.0
 10
288.5338875516102
 20
64.36131397621415
 30
0.0
 10
287.6914172879973
 20
64.6638850880305
 30
0.0
 10
286.4410377654396
 20
65.05682672341692
 30
0.0
 10
285.147805782237
 20
65.35787756456386
 30
0.0
 10
283.8197860250216
 20
65.57801131059259
 30
0.0
 10
282.4574761528158
 20
65.71360833466517
 30
0.0
 10
281.0635699309936
 20
65.76509385334926
 30
0.0
 10
279.6403468751794
 20
65.73197139152863
 30
0.0
 10
278.1903674750549
 20
65.61419445650436
 30
0.0
 10
276.7162652717827
 20
65.41182691367777
 30
0.0
 10
275.2207721209946
 20
65.12515200012211
 30
0.0
 10
273.7066770973345
 20
64.75464902699858
 30
0.0
 10
272.1768045882677
 20
64.30099563384026
 30
0.0
 10
270.6339920042559
 20
63.76505607119842
 30
0.0
 10
269.0810739839217
 20
63.14786926134479
 30
0.0
 10
267.5208713639242
 20
62.45063563823634
 30
0.0
 10
265.9561845059259
 20
61.67470496422661
 30
0.0
 10
264.3897983821963
 20
60.82157036051593
 30
0.0
 10
262.8244746368742
 20
59.89285795242902
 30
0.0
 10
261.262945544541
 20
58.89031672824914
 30
0.0
 10
259.7079058814179
 20
57.81580578022935
 30
0.0
 10
258.1620198564057
 20
56.67129240154459
 30
0.0
 10
256.6279265109976
 20
55.458852189068
 30
0.0
 10
255.1082385354966
 20
54.18066597146903
 30
0.0
 10
253.60554051172
 20
52.83901690760659
 30
0.0
 10
252.1223866302357
 20
51.4362875899025
 30
0.0
 10
250.661297955348
 20
49.97495703606314
 30
0.0
 10
249.2247593208959
 20
48.45759749216028
 30
0.0
 10
247.8152159398074
 20
46.88687100046269
 30
0.0
 10
246.4350698048393
 20
45.2655257078935
 30
0.0
 10
245.0866759498542
 20
43.59639190704733
 30
0.0
 10
243.7723386321537
 20
41.88237781283828
 30
0.0
 10
242.4943074878325
 20
40.1264650853421
 30
0.0
 10
241.2547737043629
 20
38.33170411428366
 30
0.0
 10
240.0558662479206
 20
36.50120908376937
 30
0.0
 10
238.899648177238
 20
34.63815283769432
 30
0.0
 10
237.7881130713366
 20
32.74576156796954
 30
0.0
 10
236.7231831950332
 20
30.82731223148196
 30
0.0
 10
235.7067049766553
 20
28.88612552894712
 30
0.0
 10
234.7404450263118
 20
26.92555886978582
 30
0.0
 10
233.826085923821
 20
24.94899748222029
 30
0.0
 10
232.9652245780966
 20
22.9598500666299
 30
0.0
 10
232.1593704249404
 20
20.96154422062098
 30
0.0
 10
231.4099431660537
 20
18.95752055616147
 30
0.0
 10
230.7182707424222
 20
16.95122685080004
 30
0.0
 10
230.0855875474206
 20
14.94611227130896
 30
0.0
 10
229.5130328807479
 20
12.94562171252184
 30
0.0
 10
229.0016496386956
 20
10.95319029964969
 30
0.0
 10
228.5523832285013
 20
8.972238108471641
 30
0.0
 10
228.1660806839327
 20
7.00616516423627
 30
0.0
 10
227.8434899448911
 20
5.058346786239846
 30
0.0
 10
227.585259244746
 20
3.132129349808017
 30
0.0
 10
227.3919365242978
 20
1.230826539070373
 30
0.0
 10
227.2639687599166
 20
-0.6422838402328178
 30
0.0
 10
227.2017010552445
 20
-2.483962432284496
 30
0.0
 10
227.205375301908
 20
-4.291010260823107
 30
0.0
 10
227.2751281678305
 20
-6.060270039249919
 30
0.0
 10
227.4109870220461
 20
-7.788612880933882
 30
0.0
 10
227.6128633260518
 20
-9.47294566713109
 30
0.0
 10
227.880545465113
 20
-11.110216481251
 30
0.0
 10
228.2136934718152
 20
-12.69742925718258
 30
0.0
 10
228.6118298685762
 20
-14.23164154534481
 30
0.0
 10
229.0743285947239
 20
-15.70996741252744
 30
0.0
 10
229.6004034684376
 20
-17.1295889902962
 30
0.0
 10
230.1890998802086
 20
-18.48776964845936
 30
0.0
 10
230.8392818511319
 20
-19.78188445945812
 30
0.0
 10
231.5496539659853
 20
-21.00941022936626
 30
0.0
 10
232.3186827436568
 20
-22.16808572467611
 30
0.0
 10
233.1449322314235
 20
-23.25544765401392
 30
0.0
 10
234.0259049231498
 20
-24.27068145137024
 30
0.0
 10
234.9624881568229
 20
-25.20783204181959
 30
0.0
 10
235.8168310051485
 20
-25.96906550127352
 30
0.0
 10
236.3791468162912
 20
-26.38549158255091
 30
0.0
 10
236.5929246020325
 20
-26.54380590310949
 30
0.0
  0
LINE
  5
F8
330
1F
100
AcDbEntity
  8
0
  6
Continuous
 62
     7
370
    25
100
AcDbLine
 10
297.9411190416
 20
59.1231423689
 30
0.0
 11
290.8700512298
 21
63.205182928
 31
0.0
  0
LINE
  5
F9
330
1F
100
AcDbEntity
  8
0
  6
Continuous
 62
     7
370
    25
100
AcDbLine
 10
238.3743177664
 20
-27.729947622
 30
0.0
 11
245.4453855782
 21
-31.8119881811
 31
0.0
  0
SPLINE
  5
FA
330
1F
100
AcDbEntity
  8
0
  6
Continuous
 62
     7
370
    25
100
AcDbSpline
210
0.0
220
0.0
230
1.0
 70
     8
 71
     3
 72
    63
 73
    59
 74
     0
 42
0.00000001
 43
0.00000001
 40
0.0
 40
0.0
 40
0.0
 40
0.0
 40
0.0018619015937478
 40
0.0199016036513515
 40
0.0379566425405543
 40
0.0560360933103949
 40
0.0741470321480704
 40
0.092294155003866
 40
0.1104796899404495
 40
0.1287035765667356
 40
0.1469638464157725
 40
0.1652571174828224
 40
0.1835791161811901
 40
0.2019251566080126
 40
0.2202905324449416
 40
0.2386708028759907
 40
0.2570619747312596
 40
0.2754605961604987
 40
0.2938637828446588
 40
0.3122691979872069
 40
0.3306746869781991
 40
0.3490787879588004
 40
0.3674805842610016
 40
0.3858794473982241
 40
0.4042749816950989
 40
0.4226669765360896
 40
0.4410553663023063
 40
0.4594401974748729
 40
0.4778216020947467
 40
0.4961997766725211
 40
0.5145749656578545
 40
0.5329474486533663
 40
0.5513175306584879
 40
0.5696855347346262
 40
0.5880517965828563
 40
0.6064166606140172
 40
0.6247804771659419
 40
0.6431436005838705
 40
0.6615063879282189
 40
0.6798691981099261
 40
0.6982323049844347
 40
0.7165960358625213
 40
0.7349607520691611
 40
0.7533268145669227
 40
0.7716945829091223
 40
0.7900644136774782
 40
0.8084366581809478
 40
0.8268116591543528
 40
0.8451897461394626
 40
0.8635712291613904
 40
0.8819563902285539
 40
0.9003454720861634
 40
0.9187386635437709
 40
0.9371360805846859
 40
0.95553774236257
 40
0.9739435411239036
 40
0.9923532051048504
 40
1.0
 40
1.0
 40
1.0
 40
1.0
 10
247.3271333218952
 20
-32.75305114522416
 30
0.0
 10
247.3674324020855
 20
-32.7719815523586
 30
0.0
 10
247.7981835890189
 20
-32.97432600547767
 30
0.0
 10
248.6594482838258
 20
-33.28342111629637
 30
0.0
 10
249.9112496760788
 20
-33.67342660349852
 30
0.0
 10
251.2054726479741
 20
-33.97222720239561
 30
0.0
 10
252.5345242256896
 20
-34.18990573191458
 30
0.0
 10
253.897775711614
 20
-34.32308484854755
 30
0.0
 10
255.2925635414501
 20
-34.37212889298382
 30
0.0
 10
256.7165950166503
 20
-34.33656309635991
 30
0.0
 10
258.167308545629
 20
-34.21634145309675
 30
0.0
 10
259.6420670168696
 20
-34.01153469784213
 30
0.0
 10
261.1381366340731
 20
-33.72243155518113
 30
0.0
 10
262.6527269351183
 20
-33.34951720758784
 30
0.0
 10
264.1830128888416
 20
-32.89347482626473
 30
0.0
 10
265.7261569635581
 20
-32.3551738902963
 30
0.0
 10
267.2793247889531
 20
-31.7356581660331
 30
0.0
 10
268.8396960435201
 20
-31.03613256456941
 30
0.0
 10
270.4044710219679
 20
-30.25795099284666
 30
0.0
 10
271.9708651116018
 20
-29.40261064633795
 30
0.0
 10
273.5361175177056
 20
-28.4717413009439
 30
0.0
 10
275.0974968087965
 20
-27.46709539268012
 30
0.0
 10
276.6523093958376
 20
-26.39053501697092
 30
0.0
 10
278.19789178542
 20
-25.24403064032363
 30
0.0
 10
279.7316056775191
 20
-24.02966093996051
 30
0.0
 10
281.2508391661531
 20
-22.749609739646
 30
0.0
 10
282.7530085126805
 20
-21.40616311029429
 30
0.0
 10
284.2355604427304
 20
-20.00170647153783
 30
0.0
 10
285.6959748930592
 20
-18.53872157891611
 30
0.0
 10
287.1317681251631
 20
-17.01978332069052
 30
0.0
 10
288.540496122804
 20
-15.44755627843462
 30
0.0
 10
289.9197581962271
 20
-13.82479102781805
 30
0.0
 10
291.2672007239697
 20
-12.15432017190351
 30
0.0
 10
292.5805209719951
 20
-10.43905411028926
 30
0.0
 10
293.8574709384277
 20
-8.681976554833454
 30
0.0
 10
295.0958611798824
 20
-6.886139807523863
 30
0.0
 10
296.2935645820617
 20
-5.054659819162349
 30
0.0
 10
297.4485200429804
 20
-3.190711049333831
 30
0.0
 10
298.5587360415785
 20
-1.297521149856262
 30
0.0
 10
299.6222924031766
 20
0.621631500736939
 30
0.0
 10
300.6373449605899
 20
2.563425059398043
 30
0.0
 10
301.6021294533527
 20
4.52450114384002
 30
0.0
 10
302.5149657835235
 20
6.501473849700016
 30
0.0
 10
303.3742595340415
 20
8.490933848322241
 30
0.0
 10
304.1785038300796
 20
10.4894530841899
 30
0.0
 10
304.9262815904044
 20
12.49359065561721
 30
0.0
 10
305.6162675582322
 20
14.49989866836775
 30
0.0
 10
306.247230039702
 20
16.50492798550745
 30
0.0
 10
306.8180325977916
 20
18.50523397340615
 30
0.0
 10
307.3276347776081
 20
20.49738166222835
 30
0.0
 10
307.7750953426632
 20
22.47795225683065
 30
0.0
 10
308.1595651021474
 20
24.44354350622263
 30
0.0
 10
308.480317686741
 20
26.39079160537561
 30
0.0
 10
308.7366379383616
 20
28.3163109929564
 30
0.0
 10
308.928241454073
 20
30.21693861083626
 30
0.0
 10
309.0537111621304
 20
32.08883910839841
 30
0.0
 10
309.1041290692335
 20
33.57177598608517
 30
0.0
 10
309.1080893241354
 20
34.42707977611756
 30
0.0
 10
309.1092515410396
 20
34.67808597333423
 30
0.0
  0
SPLINE
  5
FB
330
1F
100
AcDbEntity
  8
0
  6
Continuous
 62
     7
370
    25
100
AcDbSpline
210
0.0
220
0.0
230
1.0
 70
     8
 71
     3
 72
    25
 73
    21
 74
     0
 42
0.00000001
 43
0.00000001
 40
0.0
 40
0.0
 40
0.0
 40
0.0
 40
0.0310590910603822
 40
0.0899866813837483
 40
0.1489249190249085
 40
0.2078624652694813
 40
0.2667923036418222
 40
0.3257061293709004
 40
0.3845937583037862
 40
0.4434430908202917
 40
0.5022402509451886
 40
0.5609699747494415
 40
0.6196163174494024
 40
0.6781637222695223
 40
0.7365984400815113
 40
0.7949102080157714
 40
0.853094000492952
 40
0.9111515831118586
 40
0.9690925609248834
 40
1.0
 40
1.0
 40
1.0
 40
1.0
 10
309.1092515410396
 20
34.67808597333423
 30
0.0
 10
309.1074068300691
 20
34.99484262732518
 30
0.0
 10
309.1020621978639
 20
35.91257328607013
 30
0.0
 10
309.0426880452245
 20
37.4026885445562
 30
0.0
 10
308.909448715798
 20
39.13258141609733
 30
0.0
 10
308.709286921203
 20
40.81812672585043
 30
0.0
 10
308.4435516560619
 20
42.45682592812529
 30
0.0
 10
308.1122744686647
 20
44.04551845177912
 30
0.0
 10
307.7160103141459
 20
45.58130391280456
 30
0.0
 10
307.2553589368671
 20
47.06128292291501
 30
0.0
 10
306.7311076501942
 20
48.48263865727839
 30
0.0
 10
306.1442043188986
 20
49.84263073672214
 30
0.0
 10
305.4957807967914
 20
51.13863200244494
 30
0.0
 10
304.787125075776
 20
52.36811174321812
 30
0.0
 10
304.0197742584724
 20
53.52881615500206
 30
0.0
 10
303.1951291880393
 20
54.61823021571941
 30
0.0
 10
302.3157994651899
 20
55.63570435400884
 30
0.0
 10
301.3804667171212
 20
56.57464012301035
 30
0.0
 10
300.5543021834598
 20
57.31573436929423
 30
0.0
 10
300.0208944013772
 20
57.71321001315847
 30
0.0
 10
299.8353393953982
 20
57.85147870355106
 30
0.0
  0
SPLINE
  5
FC
330
1F
100
AcDbEntity
  8
0
  6
Continuous
 62
     7
370
    25
100
AcDbSpline
210
0.0
220
0.0
230
1.0
 70
     8
 71
     3
 72
    15
 73
    11
 74
     0
 42
0.00000001
 43
0.00000001
 40
0.0
 40
0.0
 40
0.0
 40
0.0
 40
0.0928539014023941
 40
0.2448123620428768
 40
0.3872873322734747
 40
0.5388919750871553
 40
0.6840592031849435
 40
0.8261003851034036
 40
0.958885271299233
 40
1.0
 40
1.0
 40
1.0
 40
1.0
 10
294.6495299164299
 20
39.08920339540762
 30
0.0
 10
294.7106559839152
 20
39.05473074888732
 30
0.0
 10
294.8718168693221
 20
38.96384248363362
 30
0.0
 10
295.0903773292439
 20
38.74472464147419
 30
0.0
 10
295.3215762852898
 20
38.42941167658469
 30
0.0
 10
295.5146437560434
 20
38.03710493726102
 30
0.0
 10
295.6647011282886
 20
37.56745296815584
 30
0.0
 10
295.7593042049256
 20
37.05039436658601
 30
0.0
 10
295.7928938073047
 20
36.62044754093173
 30
0.0
 10
295.7950364592539
 20
36.37009300548108
 30
0.0
 10
295.7955430420525
 20
36.31090219697825
 30
0.0
  0
SPLINE
  5
FD
330
1F
100
AcDbEntity
  8
0
  6
Continuous
 62
     7
370
    25
100
AcDbSpline
210
0.0
220
0.0
230
1.0
 70
     8
 71
     3
 72
    30
 73
    26
 74
     0
 42
0.00000001
 43
0.00000001
 40
0.0
 40
0.0
 40
0.0
 40
0.0
 40
0.0237565329249098
 40
0.069353619905302
 40
0.1151149964505823
 40
0.1610499457232689
 40
0.2071484303295069
 40
0.2533816730061605
 40
0.299712170663739
 40
0.3460986991314348
 40
0.3924985702587064
 40
0.4388576881985189
 40
0.485128972951071
 40
0.5312693950439661
 40
0.5772381974122079
 40
0.6230010292958588
 40
0.6685383101985999
 40
0.7138608494341948
 40
0.7590374339986617
 40
0.8042046676629236
 40
0.8496155184138564
 40
0.895801202758952
 40
0.9436595704624008
 40
0.9944667559777112
 40
1.0
 40
1.0
 40
1.0
 40
1.0
 10
295.7955430420525
 20
36.31090219697825
 30
0.0
 10
295.793975584499
 20
36.20324863419889
 30
0.0
 10
295.7893996282461
 20
35.88897027135657
 30
0.0
 10
295.7375299048153
 20
35.33551441341991
 30
0.0
 10
295.619323378997
 20
34.64723337228877
 30
0.0
 10
295.4410351562389
 20
33.93504938360619
 30
0.0
 10
295.2049327665343
 20
33.20979847493854
 30
0.0
 10
294.9131409398306
 20
32.48148130158989
 30
0.0
 10
294.5691811112751
 20
31.76045079997936
 30
0.0
 10
294.1774623061731
 20
31.05684461420621
 30
0.0
 10
293.7433475045464
 20
30.38056365044642
 30
0.0
 10
293.2730360113608
 20
29.7410428342499
 30
0.0
 10
292.7734821680432
 20
29.14707696549398
 30
0.0
 10
292.2522671294985
 20
28.60661737617389
 30
0.0
 10
291.7175334019797
 20
28.12664063732475
 30
0.0
 10
291.177889509119
 20
27.71296566351214
 30
0.0
 10
290.6422575878645
 20
27.37003099655771
 30
0.0
 10
290.1196198409818
 20
27.10062683245612
 30
0.0
 10
289.6187894240326
 20
26.9057806369897
 30
0.0
 10
289.1478136741281
 20
26.78433199992709
 30
0.0
 10
288.7132881003837
 20
26.733831218161
 30
0.0
 10
288.3169225302406
 20
26.74780685499704
 30
0.0
 10
287.9607023337016
 20
26.83223294008841
 30
0.0
 10
287.7287812577051
 20
26.9156147002482
 30
0.0
 10
287.622056794182
 20
26.99593219263829
 30
0.0
 10
287.6115752890769
 20
27.00382024546821
 30
0.0
  0
SPLINE
  5
FE
330
1F
100
AcDbEntity
  8
0
  6
Continuous
 62
     7
370
    25
100
AcDbSpline
210
0.0
220
0.0
230
1.0
 70
     8
 71
     3
 72
    15
 73
    11
 74
     0
 42
0.00000001
 43
0.00000001
 40
0.0
 40
0.0
 40
0.0
 40
0.0
 40
0.0928539014024079
 40
0.2448123620428846
 40
0.38728733227348
 40
0.5388919750871647
 40
0.6840592031849511
 40
0.8261003851034133
 40
0.9588852712992445
 40
1.0
 40
1.0
 40
1.0
 40
1.0
 10
268.1330256219343
 20
-6.838729146981064
 30
0.0
 10
268.1941516894198
 20
-6.873201793501364
 30
0.0
 10
268.3553125748266
 20
-6.964090058755059
 30
0.0
 10
268.5738730347484
 20
-7.183207900914524
 30
0.0
 10
268.8050719907943
 20
-7.49852086580401
 30
0.0
 10
268.9981394615479
 20
-7.890827605127677
 30
0.0
 10
269.1481968337932
 20
-8.36047957423288
 30
0.0
 10
269.2427999104302
 20
-8.877538175802703
 30
0.0
 10
269.2763895128092
 20
-9.30748500145699
 30
0.0
 10
269.2785321647584
 20
-9.557839536907624
 30
0.0
 10
269.279038747557
 20
-9.617030345410438
 30
0.0
  0
SPLINE
  5
FF
330
1F
100
AcDbEntity
  8
0
  6
Continuous
 62
     7
370
    25
100
AcDbSpline
210
0.0
220
0.0
230
1.0
 70
     8
 71
     3
 72
    30
 73
    26
 74
     0
 42
0.00000001
 43
0.00000001
 40
0.0
 40
0.0
 40
0.0
 40
0.0
 40
0.0237565329249101
 40
0.0693536199053015
 40
0.1151149964505835
 40
0.1610499457232697
 40
0.2071484303295098
 40
0.253381673006164
 40
0.2997121706637449
 40
0.3460986991314391
 40
0.3924985702587093
 40
0.4388576881985239
 40
0.4851289729510727
 40
0.5312693950439685
 40
0.5772381974122123
 40
0.6230010292958594
 40
0.6685383101986019
 40
0.7138608494341956
 40
0.7590374339986625
 40
0.8042046676629211
 40
0.8496155184138593
 40
0.8958012027589529
 40
0.9436595704624028
 40
0.994466755977711
 40
1.0
 40
1.0
 40
1.0
 40
1.0
 10
269.279038747557
 20
-9.617030345410438
 30
0.0
 10
269.2774712900035
 20
-9.7246839081898
 30
0.0
 10
269.2728953337506
 20
-10.03896227103213
 30
0.0
 10
269.2210256103198
 20
-10.59241812896879
 30
0.0
 10
269.1028190845016
 20
-11.28069917009991
 30
0.0
 10
268.9245308617434
 20
-11.99288315878252
 30
0.0
 10
268.6884284720388
 20
-12.71813406745017
 30
0.0
 10
268.3966366453351
 20
-13.44645124079887
 30
0.0
 10
268.0526768167796
 20
-14.16748174240939
 30
0.0
 10
267.6609580116776
 20
-14.87108792818254
 30
0.0
 10
267.2268432100508
 20
-15.54736889194234
 30
0.0
 10
266.7565317168653
 20
-16.18688970813883
 30
0.0
 10
266.2569778735476
 20
-16.78085557689475
 30
0.0
 10
265.735762835003
 20
-17.32131516621483
 30
0.0
 10
265.2010291074841
 20
-17.80129190506397
 30
0.0
 10
264.6613852146235
 20
-18.21496687887656
 30
0.0
 10
264.125753293369
 20
-18.55790154583099
 30
0.0
 10
263.6031155464863
 20
-18.82730570993258
 30
0.0
 10
263.1022851295372
 20
-19.02215190539896
 30
0.0
 10
262.6313093796326
 20
-19.14360054246162
 30
0.0
 10
262.1967838058882
 20
-19.1941013242277
 30
0.0
 10
261.800418235745
 20
-19.18012568739165
 30
0.0
 10
261.4441980392061
 20
-19.09569960230028
 30
0.0
 10
261.2122769632095
 20
-19.01231784214044
 30
0.0
 10
261.1055524996865
 20
-18.9320003497504
 30
0.0
 10
261.0950709945814
 20
-18.92411229692047
 30
0.0
  0
SPLINE
  5
100
330
1F
100
AcDbEntity
  8
0
  6
Continuous
 62
     7
370
    25
100
AcDbSpline
210
0.0
220
0.0
230
1.0
 70
     8
 71
     3
 72
    18
 73
    14
 74
     0
 42
0.00000001
 43
0.00000001
 40
0.0
 40
0.0
 40
0.0
 40
0.0
 40
0.0749793379993595
 40
0.1742095602570279
 40
0.2726057714310219
 40
0.3696282593152159
 40
0.4652180230992232
 40
0.5596109226278178
 40
0.65313283592612
 40
0.7460853570417827
 40
0.8387060139783599
 40
0.931165610882666
 40
1.0
 40
1.0
 40
1.0
 40
1.0
 10
273.1358937416322
 20
32.44243383839193
 30
0.0
 10
273.2823313663301
 20
32.35509126558463
 30
0.0
 10
273.6225695557353
 20
32.15215654241317
 30
0.0
 10
274.1014952036533
 20
31.74133345499559
 30
0.0
 10
274.5786779715648
 20
31.22722725479585
 30
0.0
 10
275.001136365953
 20
30.63862092555984
 30
0.0
 10
275.3687490787333
 20
29.9833077382268
 30
0.0
 10
275.6799894016368
 20
29.26430163622847
 30
0.0
 10
275.9340347789143
 20
28.48507666751706
 30
0.0
 10
276.1302259918498
 20
27.6490700795731
 30
0.0
 10
276.2661641206469
 20
26.759029447044
 30
0.0
 10
276.3388597338142
 20
25.90178120428248
 30
0.0
 10
276.3467424876543
 20
25.3295135973403
 30
0.0
 10
276.3501065594249
 20
25.08529065941738
 30
0.0
  0
SPLINE
  5
101
330
1F
100
AcDbEntity
  8
0
  6
Continuous
 62
     7
370
    25
100
AcDbSpline
210
0.0
220
0.0
230
1.0
 70
     8
 71
     3
 72
    40
 73
    36
 74
     0
 42
0.00000001
 43
0.00000001
 40
0.0
 40
0.0
 40
0.0
 40
0.0
 40
0.0159982548676399
 40
0.0465584107940983
 40
0.0771484664057526
 40
0.1077677020108183
 40
0.1384186361182291
 40
0.1691006709931964
 40
0.1998112370267795
 40
0.2305465575801884
 40
0.2613021440170086
 40
0.2920731050958781
 40
0.3228543315083544
 40
0.3536405988559558
 40
0.3844264905905121
 40
0.415205044139441
 40
0.4459709190662686
 40
0.4767187905468216
 40
0.5074434121079523
 40
0.5381397375056555
 40
0.568803135204516
 40
0.5994297432872143
 40
0.6300170313735349
 40
0.6605646600437681
 40
0.6910757553765208
 40
0.7215587397986758
 40
0.7520298635104106
 40
0.7825066780264683
 40
0.8130258876419462
 40
0.8436425728605789
 40
0.8744329422273512
 40
0.9054937247702927
 40
0.9369319626681499
 40
0.9688362490663711
 40
1.0
 40
1.0
 40
1.0
 40
1.0
 10
276.3501065594249
 20
25.08529065941738
 30
0.0
 10
276.3484056754161
 20
24.91096828116626
 30
0.0
 10
276.3434557319976
 20
24.40365214172681
 30
0.0
 10
276.2880842323807
 20
23.53355882386451
 30
0.0
 10
276.1631930695892
 20
22.46881966948538
 30
0.0
 10
275.9754590346859
 20
21.37660796504732
 30
0.0
 10
275.7265531186881
 20
20.26377404509289
 30
0.0
 10
275.417199417891
 20
19.13631567530943
 30
0.0
 10
275.0488839920464
 20
18.00059400761865
 30
0.0
 10
274.6233853966775
 20
16.86296174049613
 30
0.0
 10
274.1428816780299
 20
15.72980017402644
 30
0.0
 10
273.6098998892523
 20
14.60745279776433
 30
0.0
 10
273.0273064467668
 20
13.50219138856305
 30
0.0
 10
272.3982867473637
 20
12.42017835105406
 30
0.0
 10
271.7263379977699
 20
11.36744827670685
 30
0.0
 10
271.0152409290374
 20
10.34985144855413
 30
0.0
 10
270.2690380286489
 20
9.373016641627537
 30
0.0
 10
269.491998782992
 20
8.44230192028549
 30
0.0
 10
268.6886103251931
 20
7.562778290799502
 30
0.0
 10
267.8635545854672
 20
6.739193659733187
 30
0.0
 10
267.021682890098
 20
5.975935333648518
 30
0.0
 10
266.1679866164238
 20
5.276990825978812
 30
0.0
 10
265.307561882058
 20
4.645907069830358
 30
0.0
 10
264.4455654238064
 20
4.085748794059908
 30
0.0
 10
263.5871579826864
 20
3.599058288355675
 30
0.0
 10
262.7374303498376
 20
3.187820433294797
 30
0.0
 10
261.9013981454293
 20
2.853478738893377
 30
0.0
 10
261.0838313644176
 20
2.596879635658075
 30
0.0
 10
260.2891087405296
 20
2.418314014424196
 30
0.0
 10
259.520934308006
 20
2.317556706581708
 30
0.0
 10
258.7823505456723
 20
2.29432087698618
 30
0.0
 10
258.0751812020578
 20
2.347760782888373
 30
0.0
 10
257.4019757600561
 20
2.48001627993796
 30
0.0
 10
256.7677987957682
 20
2.68195015349253
 30
0.0
 10
256.3815397803774
 20
2.880229149529606
 30
0.0
 10
256.1906779704851
 20
2.978204566385471
 30
0.0
  0
SPLINE
  5
102
330
1F
100
AcDbEntity
  8
0
  6
Continuous
 62
     7
370
    25
100
AcDbSpline
210
0.0
220
0.0
230
1.0
 70
     8
 71
     3
 72
    38
 73
    34
 74
     0
 42
0.00000001
 43
0.00000001
 40
0.0
 40
0.0
 40
0.0
 40
0.0
 40
0.0228662762134203
 40
0.0556950543541688
 40
0.0884159464255871
 40
0.1210864005693623
 40
0.1537441278339387
 40
0.1864069289609483
 40
0.219091526585078
 40
0.2518065990011496
 40
0.2845554092870984
 40
0.317337683562378
 40
0.3501509032716283
 40
0.3829911695704359
 40
0.4158537651011593
 40
0.4487335069360683
 40
0.4816249586161708
 40
0.5145225497098795
 40
0.5474206374963317
 40
0.5803117623174234
 40
0.6131901034474897
 40
0.6460499657228767
 40
0.6788857257166333
 40
0.7116919517030165
 40
0.7444636169982943
 40
0.7771964554796624
 40
0.8098875274112638
 40
0.8425360885763276
 40
0.8751448844934021
 40
0.9077220179329861
 40
0.9402835458627744
 40
0.9728481691462837
 40
1.0
 40
1.0
 40
1.0
 40
1.0
 10
260.5308937961849
 20
2.484625831757552
 30
0.0
 10
260.4718992418876
 20
2.663423118990714
 30
0.0
 10
260.3282070692958
 20
3.09891705503371
 30
0.0
 10
260.1648750920561
 20
3.861825833886858
 30
0.0
 10
260.0345388325545
 20
4.756327722153075
 30
0.0
 10
259.9666927065484
 20
5.701903440718364
 30
0.0
 10
259.9596608189588
 20
6.690849790483178
 30
0.0
 10
260.0147310678655
 20
7.718811194150424
 30
0.0
 10
260.1319532685167
 20
8.780055986448671
 30
0.0
 10
260.3112323118625
 20
9.868901681115497
 30
0.0
 10
260.5520086889305
 20
10.97934025528171
 30
0.0
 10
260.8533320655809
 20
12.10520023266823
 30
0.0
 10
261.2138448830163
 20
13.24018419537302
 30
0.0
 10
261.6317996701231
 20
14.37793048038149
 30
0.0
 10
262.1050728597266
 20
15.51206032361215
 30
0.0
 10
262.6311825793399
 20
16.63622242715141
 30
0.0
 10
263.2073069308124
 20
17.74413327765791
 30
0.0
 10
263.8303028756007
 20
18.82961499478667
 30
0.0
 10
264.4967133403177
 20
19.88661236234153
 30
0.0
 10
265.202794386293
 20
20.90924830527803
 30
0.0
 10
265.9445364197147
 20
21.89186119948957
 30
0.0
 10
266.7176999423286
 20
22.82905602830017
 30
0.0
 10
267.5178256731703
 20
23.71572118665664
 30
0.0
 10
268.3402564726902
 20
24.54706361781232
 30
0.0
 10
269.1801617494291
 20
25.31864442353747
 30
0.0
 10
270.0325683493105
 20
26.0264240737583
 30
0.0
 10
270.8923868205362
 20
26.66677972796014
 30
0.0
 10
271.7544843371522
 20
27.23663354302246
 30
0.0
 10
272.6136269654207
 20
27.73317027429906
 30
0.0
 10
273.4649698947807
 20
28.15507684685721
 30
0.0
 10
274.3025130516376
 20
28.49804765596437
 30
0.0
 10
275.0791828860828
 20
28.75630869166277
 30
0.0
 10
275.5627143120153
 20
28.86243461844025
 30
0.0
 10
275.7825660041337
 20
28.9106878721655
 30
0.0
  0
SPLINE
  5
103
330
1F
100
AcDbEntity
  8
0
  6
Continuous
 62
     7
370
    25
100
AcDbSpline
210
0.0
220
0.0
230
1.0
 70
     8
 71
     3
 72
    15
 73
    11
 74
     0
 42
0.00000001
 43
0.00000001
 40
0.0
 40
0.0
 40
0.0
 40
0.0
 40
0.0928539014023989
 40
0.2448123620428855
 40
0.3872873322734867
 40
0.5388919750871726
 40
0.6840592031849574
 40
0.8261003851034183
 40
0.9588852712992495
 40
1.0
 40
1.0
 40
1.0
 40
1.0
 10
268.1330256219367
 20
54.40183174444881
 30
0.0
 10
268.1941516894221
 20
54.36735909792851
 30
0.0
 10
268.355312574829
 20
54.27647083267482
 30
0.0
 10
268.5738730347507
 20
54.05735299051534
 30
0.0
 10
268.8050719907967
 20
53.74204002562585
 30
0.0
 10
268.9981394615503
 20
53.3497332863022
 30
0.0
 10
269.1481968337956
 20
52.88008131719696
 30
0.0
 10
269.2427999104326
 20
52.36302271562715
 30
0.0
 10
269.2763895128116
 20
51.9330758899729
 30
0.0
 10
269.2785321647607
 20
51.68272135452223
 30
0.0
 10
269.2790387475594
 20
51.62353054601944
 30
0.0
  0
SPLINE
  5
104
330
1F
100
AcDbEntity
  8
0
  6
Continuous
 62
     7
370
    25
100
AcDbSpline
210
0.0
220
0.0
230
1.0
 70
     8
 71
     3
 72
    30
 73
    26
 74
     0
 42
0.00000001
 43
0.00000001
 40
0.0
 40
0.0
 40
0.0
 40
0.0
 40
0.0237565329249101
 40
0.0693536199053015
 40
0.1151149964505835
 40
0.1610499457232698
 40
0.2071484303295099
 40
0.2533816730061642
 40
0.2997121706637451
 40
0.3460986991314393
 40
0.3924985702587095
 40
0.4388576881985241
 40
0.4851289729510763
 40
0.53126939504397
 40
0.5772381974122133
 40
0.6230010292958653
 40
0.668538310198604
 40
0.7138608494341993
 40
0.7590374339986657
 40
0.804204667662926
 40
0.8496155184138586
 40
0.8958012027589555
 40
0.9436595704624051
 40
0.9944667559777126
 40
1.0
 40
1.0
 40
1.0
 40
1.0
 10
269.2790387475594
 20
51.62353054601944
 30
0.0
 10
269.2774712900059
 20
51.51587698324009
 30
0.0
 10
269.272895333753
 20
51.20159862039775
 30
0.0
 10
269.2210256103222
 20
50.6481427624611
 30
0.0
 10
269.1028190845039
 20
49.95986172132995
 30
0.0
 10
268.9245308617458
 20
49.24767773264738
 30
0.0
 10
268.6884284720412
 20
48.5224268239797
 30
0.0
 10
268.3966366453375
 20
47.79410965063102
 30
0.0
 10
268.052676816782
 20
47.07307914902048
 30
0.0
 10
267.66095801168
 20
46.36947296324736
 30
0.0
 10
267.2268432100532
 20
45.69319199948755
 30
0.0
 10
266.7565317168676
 20
45.05367118329104
 30
0.0
 10
266.2569778735499
 20
44.45970531453511
 30
0.0
 10
265.7357628350054
 20
43.91924572521502
 30
0.0
 10
265.2010291074865
 20
43.43926898636592
 30
0.0
 10
264.6613852146258
 20
43.02559401255329
 30
0.0
 10
264.1257532933713
 20
42.68265934559888
 30
0.0
 10
263.6031155464887
 20
42.41325518149729
 30
0.0
 10
263.1022851295395
 20
42.21840898603089
 30
0.0
 10
262.631309379635
 20
42.09696034896829
 30
0.0
 10
262.1967838058906
 20
42.0464595672022
 30
0.0
 10
261.8004182357474
 20
42.06043520403825
 30
0.0
 10
261.4441980392085
 20
42.14486128912964
 30
0.0
 10
261.2122769632119
 20
42.22824304928936
 30
0.0
 10
261.1055524996889
 20
42.3085605416795
 30
0.0
 10
261.0950709945838
 20
42.31644859450942
 30
0.0
  0
SPLINE
  5
105
330
1F
100
AcDbEntity
  8
0
  6
Continuous
 62
     7
370
    25
100
AcDbSpline
210
0.0
220
0.0
230
1.0
 70
     8
 71
     3
 72
    15
 73
    11
 74
     0
 42
0.00000001
 43
0.00000001
 40
0.0
 40
0.0
 40
0.0
 40
0.0
 40
0.0928539014023888
 40
0.244812362042877
 40
0.3872873322734765
 40
0.5388919750871729
 40
0.6840592031849594
 40
0.8261003851034237
 40
0.958885271299258
 40
1.0
 40
1.0
 40
1.0
 40
1.0
 10
241.6165213274413
 20
8.473899202060126
 30
0.0
 10
241.6776473949267
 20
8.439426555539837
 30
0.0
 10
241.8388082803334
 20
8.34853829028614
 30
0.0
 10
242.0573687402553
 20
8.129420448126702
 30
0.0
 10
242.2885676963012
 20
7.814107483237192
 30
0.0
 10
242.4816351670548
 20
7.421800743913506
 30
0.0
 10
242.6316925393
 20
6.952148774808282
 30
0.0
 10
242.7262956159371
 20
6.435090173238453
 30
0.0
 10
242.7598852183161
 20
6.005143347584185
 30
0.0
 10
242.7620278702653
 20
5.754788812133547
 30
0.0
 10
242.7625344530639
 20
5.695598003630758
 30
0.0
  0
SPLINE
  5
106
330
1F
100
AcDbEntity
  8
0
  6
Continuous
 62
     7
370
    25
100
AcDbSpline
210
0.0
220
0.0
230
1.0
 70
     8
 71
     3
 72
    30
 73
    26
 74
     0
 42
0.00000001
 43
0.00000001
 40
0.0
 40
0.0
 40
0.0
 40
0.0
 40
0.0237565329249097
 40
0.0693536199053018
 40
0.1151149964505836
 40
0.16104994572327
 40
0.2071484303295079
 40
0.253381673006163
 40
0.2997121706637431
 40
0.3460986991314354
 40
0.392498570258709
 40
0.4388576881985236
 40
0.4851289729510743
 40
0.531269395043969
 40
0.577238197412212
 40
0.6230010292958618
 40
0.6685383101986033
 40
0.7138608494341978
 40
0.7590374339986652
 40
0.8042046676629271
 40
0.8496155184138605
 40
0.8958012027589559
 40
0.9436595704624078
 40
0.9944667559777168
 40
1.0
 40
1.0
 40
1.0
 40
1.0
 10
242.7625344530639
 20
5.695598003630758
 30
0.0
 10
242.7609669955104
 20
5.587944440851405
 30
0.0
 10
242.7563910392575
 20
5.273666078009072
 30
0.0
 10
242.7045213158267
 20
4.720210220072418
 30
0.0
 10
242.5863147900085
 20
4.031929178941268
 30
0.0
 10
242.4080265672503
 20
3.319745190258683
 30
0.0
 10
242.1719241775457
 20
2.594494281591027
 30
0.0
 10
241.880132350842
 20
1.866177108242353
 30
0.0
 10
241.5361725222865
 20
1.145146606631831
 30
0.0
 10
241.1444537171845
 20
0.4415404208586785
 30
0.0
 10
240.7103389155578
 20
-0.2347405429011205
 30
0.0
 10
240.2400274223721
 20
-0.8742613590976487
 30
0.0
 10
239.7404735790545
 20
-1.468227227853568
 30
0.0
 10
239.2192585405099
 20
-2.008686817173651
 30
0.0
 10
238.684524812991
 20
-2.488663556022772
 30
0.0
 10
238.1448809201303
 20
-2.902338529835385
 30
0.0
 10
237.6092489988758
 20
-3.245273196789807
 30
0.0
 10
237.0866112519932
 20
-3.514677360891394
 30
0.0
 10
236.585780835044
 20
-3.709523556357799
 30
0.0
 10
236.1148050851395
 20
-3.830972193420414
 30
0.0
 10
235.6802795113951
 20
-3.881472975186491
 30
0.0
 10
235.2839139412519
 20
-3.867497338350443
 30
0.0
 10
234.9276937447129
 20
-3.783071253259059
 30
0.0
 10
234.6957726687165
 20
-3.699689493099262
 30
0.0
 10
234.5890482051933
 20
-3.619372000709192
 30
0.0
 10
234.5785667000883
 20
-3.611483947879281
 30
0.0
  0
LWPOLYLINE
  5
107
330
1F
100
AcDbEntity
  8
0
  6
Continuous
 62
     7
370
    25
100
AcDbPolyline
 90
      142
 70
   128
 43
0.0
 10
300.331076948
 20
39.1683305884
 10
300.2949266502
 20
41.0207390619
 10
300.1865475298
 20
42.8277315044
 10
300.0061547635
 20
44.5857202997
 10
299.7541065045
 20
46.2912151238
 10
299.4309031713
 20
47.9408298745
 10
299.0371864541
 20
49.5312893944
 10
298.5737380411
 20
51.0594359734
 10
298.0414780661
 20
52.5222356179
 10
297.4414632822
 20
53.9167840746
 10
296.7748849631
 20
55.2403125967
 10
296.0430665383
 20
56.4901934408
 10
295.2474609657
 20
57.6639450841
 10
294.3896478463
 20
58.7592371514
 10
293.4713302889
 20
59.7738950417
 10
292.4943315278
 20
60.7059042457
 10
291.4605913036
 20
61.5534143453
 10
290.372162012
 20
62.3147426878
 10
289.2312046286
 20
62.9883777261
 10
288.0399844185
 20
63.5729820203
 10
286.8008664392
 20
64.0673948926
 10
285.5163108449
 20
64.4706347321
 10
284.1888680016
 20
64.7819009433
 10
282.8211734244
 20
65.0005755361
 10
281.4159425442
 20
65.1262243522
 10
279.9759653169
 20
65.1585979276
 10
278.5041006839
 20
65.0976319875
 10
277.0032708962
 20
64.9434475742
 10
275.4764557124
 20
64.6963508065
 10
273.9266864829
 20
64.3568322722
 10
272.3570401308
 20
63.925566054
 10
270.7706330438
 20
63.4034083909
 10
269.1706148862
 20
62.7913959787
 10
267.5601623461
 20
62.0907439113
 10
265.9424728279
 20
61.3028432687
 10
264.3207581043
 20
60.4292583546
 10
262.6982379399
 20
59.4717235909
 10
261.0781336982
 20
58.4321400744
 10
259.4636619462
 20
57.3125718018
 10
257.8580280683
 20
56.1152415724
 10
256.2644199017
 20
54.8425265745
 10
254.6860014081
 20
53.4969536658
 10
253.1259063912
 20
52.0811943569
 10
251.5872322752
 20
50.5980595068
 10
250.0730339553
 20
49.0504937425
 10
248.5863177319
 20
47.4415696126
 10
247.1300353427
 20
45.7744814869
 10
245.7070781013
 20
44.0525392147
 10
244.3202711578
 20
42.2791615529
 10
242.9723678889
 20
40.4578693787
 10
241.6660444319
 20
38.5922786992
 10
240.4038943709
 20
36.6860934719
 10
239.1884235882
 20
34.7430982512
 10
238.0220452885
 20
32.7671506743
 10
236.9070752079
 20
30.7621738021
 10
235.8457270162
 20
28.7321483307
 10
234.8401079222
 20
26.6811046877
 10
233.8922144894
 20
24.6131150304
 10
233.0039286725
 20
22.5322851608
 10
232.1770140807
 20
20.4427463741
 10
231.4131124765
 20
18.348647256
 10
230.7137405157
 20
16.2541454467
 10
230.0802867367
 20
14.1633993854
 10
229.5140088032
 20
12.080560055
 10
229.0160310078
 20
10.0097627402
 10
228.5873420392
 20
7.9551188174
 10
228.2287930198
 20
5.9207075919
 10
227.9410958153
 20
3.9105681989
 10
227.7248216219
 20
1.928691584
 10
227.5803998321
 20
-0.0209874201
 10
227.508117182
 20
-1.9345979064
 10
227.508117182
 20
-3.8083405782
 10
227.5803998321
 20
-5.6384952929
 10
227.7248216219
 20
-7.4214284479
 10
227.9410958153
 20
-9.1536001942
 10
228.2287930198
 20
-10.8315714654
 10
228.5873420392
 20
-12.4520108046
 10
229.0160310078
 20
-14.0117009797
 10
229.5140088032
 20
-15.5075453701
 10
230.0802867367
 20
-16.9365741153
 10
230.7137405157
 20
-18.2959500109
 10
231.4131124765
 20
-19.582974142
 10
232.1770140807
 20
-20.7950912413
 10
233.0039286725
 20
-21.9298947625
 10
233.8922144894
 20
-22.9851316582
 10
234.8401079222
 20
-23.9587068533
 10
235.8457270162
 20
-24.8486874043
 10
236.9070752079
 20
-25.6533063372
 10
238.0220452885
 20
-26.3709661556
 10
239.1884235882
 20
-27.0002420123
 10
240.4038943709
 20
-27.5398845385
 10
241.6660444319
 20
-27.9888223238
 10
242.9723678889
 20
-28.3461640437
 10
244.3202711578
 20
-28.6112002295
 10
245.7070781013
 20
-28.7834046763
 10
247.1300353427
 20
-28.862435488
 10
248.5863177319
 20
-28.8481357564
 10
250.0730339553
 20
-28.7405338721
 10
251.5872322752
 20
-28.5398434689
 10
253.1259063912
 20
-28.2464629989
 10
254.6860014081
 20
-27.8609749419
 10
256.2644199017
 20
-27.3841446488
 10
257.8580280683
 20
-26.8169188218
 10
259.4636619462
 20
-26.1604236355
 10
261.0781336982
 20
-25.4159625003
 10
262.6982379399
 20
-24.5850134748
 10
264.3207581043
 20
-23.6692263314
 10
265.9424728279
 20
-22.6704192806
 10
267.5601623461
 20
-21.5905753616
 10
269.1706148862
 20
-20.4318385043
 10
270.7706330438
 20
-19.1965092736
 10
272.3570401308
 20
-17.8870403012
 10
273.9266864829
 20
-16.5060314168
 10
275.4764557124
 20
-15.0562244854
 10
277.0032708962
 20
-13.5404979647
 10
278.5041006839
 20
-11.9618611893
 10
279.9759653169
 20
-10.3234483964
 10
281.4159425442
 20
-8.628512503
 10
282.8211734244
 20
-6.8804186473
 10
284.1888680016
 20
-5.0826375079
 10
285.5163108449
 20
-3.2387384129
 10
286.8008664392
 20
-1.3523822532
 10
288.0399844185
 20
0.5726857856
 10
289.2312046286
 20
2.5326436592
 10
290.372162012
 20
4.5236000525
 10
291.4605913036
 20
6.541602106
 10
292.4943315278
 20
8.5826432634
 10
293.4713302889
 20
10.6426712264
 10
294.3896478463
 20
12.7175960001
 10
295.2474609657
 20
14.8032980135
 10
296.0430665383
 20
16.8956362984
 10
296.7748849631
 20
18.9904567106
 10
297.4414632822
 20
21.0836001782
 10
298.0414780661
 20
23.1709109586
 10
298.5737380411
 20
25.2482448895
 10
299.0371864541
 20
27.3114776165
 10
299.4309031713
 20
29.3565127822
 10
299.7541065045
 20
31.3792901584
 10
300.0061547635
 20
33.375793708
 10
300.1865475298
 20
35.3420595579
 10
300.2949266502
 20
37.2741838694
 10
300.331076948
 20
39.1683305884
  0
ARC
  5
108
330
1F
100
AcDbEntity
  8
0
  6
Continuous
 62
     7
370
    25
100
AcDbCircle
 10
247.1526674566
 20
-12.5239789291
 30
0.0
 40
17.55783537344343
100
AcDbArc
 50
233.2695109174
 51
247.1673312262
  0
ARC
  5
109
330
1F
100
AcDbEntity
  8
0
  6
Continuous
 62
     7
370
    25
100
AcDbCircle
 10
282.0929227876
 20
48.0009468385
 30
0.0
 40
17.55573223225557
100
AcDbArc
 50
53.0103732806
 51
66.6913065831
  0
LWPOLYLINE
  5
10A
330
1F
100
AcDbEntity
  8
0
  6
Continuous
 62
     7
370
    25
100
AcDbPolyline
 90
        3
 70
   128
 43
0.0
 10
299.7721766239
 20
57.9071374892
 10
298.7997674339
 20
58.5939141419
 10
297.9411190416
 20
59.1231423689
  0
ARC
  5
10B
330
1F
100
AcDbEntity
  8
0
  6
Continuous
 62
     7
370
    25
100
AcDbCircle
 10
254.2300686856
 20
-16.5909804319
 30
0.0
 40
17.57412115008777
100
AcDbArc
 50
240.0089498021
 51
246.6215915108
  0
LWPOLYLINE
  5
10C
330
1F
100
AcDbEntity
  8
0
  6
Continuous
 62
     7
370
    25
100
AcDbPolyline
 90
       56
 70
   128
 43
0.0
 10
269.5719319664
 20
-9.2088262895
 10
269.5350590933
 20
-9.9747416531
 10
269.4249211683
 20
-10.7732446517
 10
269.2429540077
 20
-11.5939255775
 10
268.9915298317
 20
-12.4260855997
 10
268.673926339
 20
-13.2588762398
 10
268.2942839767
 20
-14.081440798
 10
267.8575519638
 20
-14.8830558875
 10
267.3694237697
 20
-15.6532712297
 10
266.8362628922
 20
-16.3820458897
 10
266.2650198985
 20
-17.0598791753
 10
265.6631418147
 20
-17.6779344929
 10
265.038475042
 20
-18.2281545464
 10
264.3991630672
 20
-18.7033663758
 10
263.7535402996
 20
-19.0973748683
 10
263.1100234192
 20
-19.4050435206
 10
262.4770016528
 20
-19.6223614012
 10
261.8627274071
 20
-19.7464954393
 10
261.2752086864
 20
-19.7758273579
 10
260.7221046956
 20
-19.7099747705
 10
260.2106259912
 20
-19.5497961662
 10
259.7474404803
 20
-19.2973797183
 10
259.3385864943
 20
-18.956016061
 10
258.9893940703
 20
-18.5301553918
 10
258.7044154654
 20
-18.0253494556
 10
258.4873658117
 20
-17.44817917
 10
258.3410746833
 20
-16.8061688321
 10
258.2674492088
 20
-16.1076880287
 10
258.2674492088
 20
-15.3618425252
 10
258.3410746833
 20
-14.5783555583
 10
258.4873658117
 20
-13.7674410788
 10
258.7044154654
 20
-12.9396705971
 10
258.9893940703
 20
-12.1058353674
 10
259.3385864943
 20
-11.2768057071
 10
259.7474404803
 20
-10.4633892855
 10
260.2106259912
 20
-9.6761902298
 10
260.7221046956
 20
-8.9254708835
 10
261.2752086864
 20
-8.2210180213
 10
261.8627274071
 20
-7.5720152637
 10
262.4770016528
 20
-6.986923354
 10
263.1100234192
 20
-6.4733698602
 10
263.7535402996
 20
-6.0380497373
 10
264.3991630672
 20
-5.686638049
 10
265.038475042
 20
-5.423715984
 10
265.6631418147
 20
-5.2527111335
 10
266.2650198985
 20
-5.1758528072
 10
266.8362628922
 20
-5.194142971
 10
267.3694237697
 20
-5.3073431846
 10
267.8575519638
 20
-5.5139777102
 10
268.2942839767
 20
-5.8113527506
 10
268.673926339
 20
-6.1955915674
 10
268.9915298317
 20
-6.6616850201
 10
269.2429540077
 20
-7.2035568676
 10
269.4249211683
 20
-7.8141429819
 10
269.5350590933
 20
-8.485483439
 10
269.5719319664
 20
-9.2088262895
  0
LWPOLYLINE
  5
10D
330
1F
100
AcDbEntity
  8
0
  6
Continuous
 62
     7
370
    25
100
AcDbPolyline
 90
       56
 70
   128
 43
0.0
 10
269.5719319664
 20
52.0317346019
 10
269.5350590933
 20
51.2658192383
 10
269.4249211683
 20
50.4673162397
 10
269.2429540077
 20
49.6466353139
 10
268.9915298317
 20
48.8144752917
 10
268.673926339
 20
47.9816846517
 10
268.2942839767
 20
47.1591200934
 10
267.8575519638
 20
46.3575050039
 10
267.3694237697
 20
45.5872896617
 10
266.8362628922
 20
44.8585150017
 10
266.2650198985
 20
44.1806817162
 10
265.6631418147
 20
43.5626263985
 10
265.038475042
 20
43.012406345
 10
264.3991630672
 20
42.5371945156
 10
263.7535402996
 20
42.1431860231
 10
263.1100234192
 20
41.8355173708
 10
262.4770016528
 20
41.6181994902
 10
261.8627274071
 20
41.4940654521
 10
261.2752086864
 20
41.4647335335
 10
260.7221046956
 20
41.530586121
 10
260.2106259912
 20
41.6907647252
 10
259.7474404803
 20
41.9431811732
 10
259.3385864943
 20
42.2845448304
 10
258.9893940703
 20
42.7104054997
 10
258.7044154654
 20
43.2152114358
 10
258.4873658117
 20
43.7923817215
 10
258.3410746833
 20
44.4343920593
 10
258.2674492088
 20
45.1328728627
 10
258.2674492088
 20
45.8787183663
 10
258.3410746833
 20
46.6622053332
 10
258.4873658117
 20
47.4731198126
 10
258.7044154654
 20
48.3008902943
 10
258.9893940703
 20
49.134725524
 10
259.3385864943
 20
49.9637551844
 10
259.7474404803
 20
50.7771716059
 10
260.2106259912
 20
51.5643706616
 10
260.7221046956
 20
52.3150900079
 10
261.2752086864
 20
53.0195428701
 10
261.8627274071
 20
53.6685456278
 10
262.4770016528
 20
54.2536375374
 10
263.1100234192
 20
54.7671910312
 10
263.7535402996
 20
55.2025111541
 10
264.3991630672
 20
55.5539228424
 10
265.038475042
 20
55.8168449074
 10
265.6631418147
 20
55.987849758
 10
266.2650198985
 20
56.0647080842
 10
266.8362628922
 20
56.0464179204
 10
267.3694237697
 20
55.9332177068
 10
267.8575519638
 20
55.7265831813
 10
268.2942839767
 20
55.4292081409
 10
268.673926339
 20
55.044969324
 10
268.9915298317
 20
54.5788758714
 10
269.2429540077
 20
54.0370040238
 10
269.4249211683
 20
53.4264179096
 10
269.5350590933
 20
52.7550774524
 10
269.5719319664
 20
52.0317346019
  0
LWPOLYLINE
  5
10E
330
1F
100
AcDbEntity
  8
0
  6
Continuous
 62
     7
370
    25
100
AcDbPolyline
 90
       84
 70
   128
 43
0.0
 10
276.6429997782
 20
25.4934947153
 10
276.6065475858
 20
24.3608800763
 10
276.4973998032
 20
23.1926661459
 10
276.3161816192
 20
21.9955443475
 10
276.0639310351
 20
20.7763716865
 10
275.7420929193
 20
19.5421314734
 10
275.3525107316
 20
18.2998933244
 10
274.8974159632
 20
17.0567726672
 10
274.379415356
 20
15.8198899843
 10
273.8014759704
 20
14.5963300276
 10
273.1669081909
 20
13.3931012379
 10
272.4793467643
 20
12.2170956006
 10
271.7427299802
 20
11.0750491696
 10
270.9612771128
 20
9.9735034833
 10
270.1394642533
 20
8.9187680958
 10
269.2819986714
 20
7.9168844358
 10
268.3937918523
 20
6.9735912021
 10
267.4799313643
 20
6.094291493
 10
266.5456517174
 20
5.2840218577
 10
265.5963043808
 20
4.5474234471
 10
264.6373271302
 20
3.8887154303
 10
263.6742129003
 20
3.3116708272
 10
262.7124783223
 20
2.8195948969
 10
261.7576321247
 20
2.4153062059
 10
260.81514358
 20
2.1011204831
 10
259.8904111774
 20
1.878837356
 10
258.9887317003
 20
1.7497300421
 10
258.115269887
 20
1.7145380565
 10
257.2750288477
 20
1.7734629756
 10
256.472821407
 20
1.9261672829
 10
255.7132425366
 20
2.1717763018
 10
255.0006430352
 20
2.5088832063
 10
254.3391046085
 20
2.9355570785
 10
253.7324164885
 20
3.449353969
 10
253.1840537299
 20
4.0473308958
 10
252.6971573049
 20
4.7260627013
 10
252.2745161121
 20
5.4816616711
 10
251.9185510021
 20
6.3097998027
 10
251.6313009106
 20
7.2057335959
 10
251.4144111803
 20
8.1643312231
 10
251.2691241359
 20
9.1801019239
 10
251.1962719684
 20
10.2472274557
 10
251.1962719684
 20
11.3595954201
 10
251.2691241359
 20
12.5108342741
 10
251.4144111803
 20
13.6943498259
 10
251.6313009106
 20
14.9033630054
 10
251.9185510021
 20
16.1309486948
 10
252.2745161121
 20
17.3700753944
 10
252.6971573049
 20
18.6136454986
 10
253.1840537299
 20
19.8545359505
 10
253.7324164885
 20
21.0856390419
 10
254.3391046085
 20
22.2999031259
 10
255.0006430352
 20
23.4903730077
 10
255.7132425366
 20
24.6502297837
 10
256.472821407
 20
25.7728298993
 10
257.2750288477
 20
26.8517432026
 10
258.115269887
 20
27.8807897761
 10
258.9887317003
 20
28.854075334
 10
259.8904111774
 20
29.7660249849
 10
260.81514358
 20
30.6114151638
 10
261.7576321247
 20
31.3854035522
 10
262.7124783223
 20
32.0835568148
 10
263.6742129003
 20
32.7018759929
 10
264.6373271302
 20
33.2368194102
 10
265.5963043808
 20
33.6853229594
 10
266.5456517174
 20
34.0448176526
 10
267.4799313643
 20
34.3132443369
 10
268.3937918524
 20
34.4890654884
 10
269.2819986714
 20
34.5712740197
 10
270.1394642533
 20
34.5593990475
 10
270.9612771128
 20
34.4535085908
 10
271.7427299802
 20
34.2542091804
 10
272.4793467643
 20
33.9626423854
 10
273.1669081909
 20
33.5804782739
 10
273.8014759704
 20
33.1099058473
 10
274.379415356
 20
32.5536205019
 10
274.8974159632
 20
31.9148085898
 10
275.3525107316
 20
31.1971291678
 10
275.7420929193
 20
30.4046930385
 10
276.0639310351
 20
29.5420392045
 10
276.3161816192
 20
28.6141088686
 10
276.4973998032
 20
27.6262171319
 10
276.6065475858
 20
26.5840225487
 10
276.6429997782
 20
25.4934947153
  0
LWPOLYLINE
  5
10F
330
1F
100
AcDbEntity
  8
0
  6
Continuous
 62
     7
370
    25
100
AcDbPolyline
 90
       56
 70
   128
 43
0.0
 10
296.0884362609
 20
36.7191062529
 10
296.0515633878
 20
35.9531908893
 10
295.9414254628
 20
35.1546878907
 10
295.7594583022
 20
34.3340069648
 10
295.5080341262
 20
33.5018469426
 10
295.1904306335
 20
32.6690563026
 10
294.8107882712
 20
31.8464917444
 10
294.3740562583
 20
31.0448766548
 10
293.8859280642
 20
30.2746613126
 10
293.3527671867
 20
29.5458866527
 10
292.781524193
 20
28.8680533671
 10
292.1796461092
 20
28.2499980495
 10
291.5549793365
 20
27.699777996
 10
290.9156673617
 20
27.2245661666
 10
290.2700445941
 20
26.8305576741
 10
289.6265277137
 20
26.5228890218
 10
288.9935059473
 20
26.3055711412
 10
288.3792317016
 20
26.181437103
 10
287.7917129809
 20
26.1521051845
 10
287.2386089901
 20
26.2179577719
 10
286.7271302857
 20
26.3781363762
 10
286.2639447748
 20
26.6305528241
 10
285.8550907888
 20
26.9719164814
 10
285.5058983648
 20
27.3977771506
 10
285.2209197599
 20
27.9025830868
 10
285.0038701062
 20
28.4797533724
 10
284.8575789778
 20
29.1217637103
 10
284.7839535033
 20
29.8202445137
 10
284.7839535033
 20
30.5660900172
 10
284.8575789778
 20
31.3495769841
 10
285.0038701062
 20
32.1604914636
 10
285.2209197599
 20
32.9882619453
 10
285.5058983648
 20
33.822097175
 10
285.8550907888
 20
34.6511268353
 10
286.2639447748
 20
35.4645432569
 10
286.7271302857
 20
36.2517423126
 10
287.2386089901
 20
37.0024616589
 10
287.7917129809
 20
37.7069145211
 10
288.3792317016
 20
38.3559172787
 10
288.9935059473
 20
38.9410091884
 10
289.6265277137
 20
39.4545626822
 10
290.2700445941
 20
39.8898828051
 10
290.9156673617
 20
40.2412944934
 10
291.5549793365
 20
40.5042165584
 10
292.1796461092
 20
40.6752214089
 10
292.781524193
 20
40.7520797352
 10
293.3527671867
 20
40.7337895714
 10
293.8859280642
 20
40.6205893578
 10
294.3740562583
 20
40.4139548322
 10
294.8107882712
 20
40.1165797918
 10
295.1904306335
 20
39.732340975
 10
295.5080341262
 20
39.2662475223
 10
295.7594583022
 20
38.7243756748
 10
295.9414254628
 20
38.1137895605
 10
296.0515633878
 20
37.4424491034
 10
296.0884362609
 20
36.7191062529
  0
LWPOLYLINE
  5
110
330
1F
100
AcDbEntity
  8
0
  6
Continuous
 62
     7
370
    25
100
AcDbPolyline
 90
       56
 70
   128
 43
0.0
 10
243.0554276719
 20
6.1038020595
 10
243.0185547988
 20
5.337886696
 10
242.9084168738
 20
4.5393836974
 10
242.7264497132
 20
3.7187027715
 10
242.4750255372
 20
2.8865427493
 10
242.1574220445
 20
2.0537521093
 10
241.7777796822
 20
1.231187551
 10
241.3410476693
 20
0.4295724615
 10
240.8529194752
 20
-0.3406428807
 10
240.3197585977
 20
-1.0694175407
 10
239.748515604
 20
-1.7472508262
 10
239.1466375202
 20
-2.3653061439
 10
238.5219707475
 20
-2.9155261973
 10
237.8826587727
 20
-3.3907380268
 10
237.2370360051
 20
-3.7847465193
 10
236.5935191247
 20
-4.0924151715
 10
235.9604973583
 20
-4.3097330522
 10
235.3462231126
 20
-4.4338670903
 10
234.7587043919
 20
-4.4631990088
 10
234.2056004011
 20
-4.3973464214
 10
233.6941216967
 20
-4.2371678172
 10
233.2309361858
 20
-3.9847513692
 10
232.8220821998
 20
-3.643387712
 10
232.4728897758
 20
-3.2175270427
 10
232.187911171
 20
-2.7127211066
 10
231.9708615172
 20
-2.1355508209
 10
231.8245703888
 20
-1.4935404831
 10
231.7509449143
 20
-0.7950596797
 10
231.7509449143
 20
-0.0492141761
 10
231.8245703888
 20
0.7342727908
 10
231.9708615172
 20
1.5451872703
 10
232.187911171
 20
2.3729577519
 10
232.4728897758
 20
3.2067929816
 10
232.8220821998
 20
4.035822642
 10
233.2309361858
 20
4.8492390635
 10
233.6941216967
 20
5.6364381192
 10
234.2056004011
 20
6.3871574655
 10
234.7587043919
 20
7.0916103277
 10
235.3462231126
 20
7.7406130854
 10
235.9604973583
 20
8.325704995
 10
236.5935191247
 20
8.8392584889
 10
237.2370360051
 20
9.2745786117
 10
237.8826587727
 20
9.6259903
 10
238.5219707475
 20
9.888912365
 10
239.1466375202
 20
10.0599172156
 10
239.748515604
 20
10.1367755418
 10
240.3197585977
 20
10.118485378
 10
240.8529194752
 20
10.0052851644
 10
241.3410476693
 20
9.7986506389
 10
241.7777796822
 20
9.5012755985
 10
242.1574220445
 20
9.1170367817
 10
242.4750255372
 20
8.650943329
 10
242.7264497132
 20
8.1090714814
 10
242.9084168738
 20
7.4984853672
 10
243.0185547988
 20
6.82714491
 10
243.0554276719
 20
6.1038020595
  0
LINE
  5
111
330
1F
100
AcDbEntity
  8
0
  6
Continuous
 62
     7
370
    25
100
AcDbLine
 10
287.5978483532
 20
27.0072331329
 30
0.0
 11
287.6389732283
 21
26.982927713
 31
0.0
  0
LINE
  5
112
330
1F
100
AcDbEntity
  8
0
  6
Continuous
 62
     7
370
    25
100
AcDbLine
 10
261.0813440587
 20
-18.9206994095
 30
0.0
 11
261.1224689338
 21
-18.9450048294
 31
0.0
  0
LINE
  5
113
330
1F
100
AcDbEntity
  8
0
  6
Continuous
 62
     7
370
    25
100
AcDbLine
 10
256.1228752707
 20
3.0147869925
 30
0.0
 11
256.1987072119
 21
2.9717843088
 31
0.0
  0
LINE
  5
114
330
1F
100
AcDbEntity
  8
0
  6
Continuous
 62
     7
370
    25
100
AcDbLine
 10
261.0813440588
 20
42.319861482
 30
0.0
 11
261.1224689338
 21
42.2955560621
 31
0.0
  0
LINE
  5
115
330
1F
100
AcDbEntity
  8
0
  6
Continuous
 62
     7
370
    25
100
AcDbLine
 10
234.5648397643
 20
-3.6080710604
 30
0.0
 11
234.6059646393
 21
-3.6323764803
 31
0.0
  0
LWPOLYLINE
  5
116
330
1F
100
AcDbEntity
  8
0
  6
Continuous
 62
     1
370
    25
100
AcDbPolyline
 90
       53
 70
   128
 43
0.0
 10
301.7452905104
 20
39.1683305884
 10
301.7089553987
 20
37.2511423004
 10
301.6000211914
 20
35.2957553716
 10
301.4187011323
 20
33.3059975636
 10
301.1653501639
 20
31.2857639209
 10
300.8404642327
 20
29.2390091456
 10
300.444679318
 20
27.1697398564
 10
299.9787701876
 20
25.0820067451
 10
299.4436488803
 20
22.9798966472
 10
298.8403629212
 20
20.867524542
 10
298.170093271
 20
18.7490254971
 10
297.434152014
 20
16.6285465738
 10
296.6339797897
 20
14.5102387093
 10
295.7711429728
 20
12.3982485906
 10
294.847330607
 20
10.2967105375
 10
293.8643510983
 20
8.2097384096
 10
292.8241286752
 20
6.1414175527
 10
291.7286996221
 20
4.0957968021
 10
290.5802082927
 20
2.0768805564
 10
289.3809029127
 20
0.088620939
 10
288.1331311787
 20
-1.8650899385
 10
286.8393356626
 20
-3.7804275954
 10
285.5020490297
 20
-5.6536426682
 10
284.1238890815
 20
-7.4810682505
 10
282.7075536307
 20
-9.2591270708
 10
281.2558152206
 20
-10.9843384956
 10
279.7715156973
 20
-12.6533253424
 10
278.2575606467
 20
-14.2628204912
 10
276.7169137069
 20
-15.8096732796
 10
275.1525907668
 20
-17.2908556705
 10
273.5676540619
 20
-18.70346818
 10
271.9652061802
 20
-20.0447455527
 10
270.3483839888
 20
-21.3120621752
 10
268.720352493
 20
-22.5029372156
 10
267.0842986409
 20
-23.6150394802
 10
265.4434250847
 20
-24.6461919765
 10
263.8009439115
 20
-25.5943761752
 10
262.1600703553
 20
-26.457735961
 10
260.5240165031
 20
-27.2345812667
 10
258.8959850073
 20
-27.9233913811
 10
257.2791628159
 20
-28.5228179261
 10
255.6767149342
 20
-29.0316874961
 10
254.0917782293
 20
-29.449003955
 10
252.5274552892
 20
-29.7739503861
 10
250.9868083495
 20
-30.0058906917
 10
249.4728532989
 20
-30.1443708377
 10
247.9885537755
 20
-30.1891197426
 10
246.5368153654
 20
-30.1400498085
 10
245.1204799147
 20
-29.9972570919
 10
243.7423199664
 20
-29.7610211164
 10
242.4050333336
 20
-29.431804325
 10
241.1112378174
 20
-29.010251175
 10
240.3395048406
 20
-28.706018299
  0
LWPOLYLINE
  5
117
330
1F
100
AcDbEntity
  8
0
  6
Continuous
 62
     1
370
    25
100
AcDbPolyline
 90
       18
 70
   128
 43
0.0
 10
292.6556876084
 20
62.0234906003
 10
292.8241286752
 20
61.8950894141
 10
293.8643510983
 20
61.0277838025
 10
294.847330607
 20
60.0757356578
 10
295.7711429728
 20
59.0408086589
 10
296.6339797897
 20
57.925028724
 10
297.434152014
 20
56.7305800448
 10
298.170093271
 20
55.4598008105
 10
298.8403629212
 20
54.1151786313
 10
299.4436488803
 20
52.6993456682
 10
299.9787701876
 20
51.2150734806
 10
300.444679318
 20
49.6652676012
 10
300.8404642327
 20
48.0529618477
 10
301.1653501639
 20
46.3813123843
 10
301.4187011323
 20
44.6535915434
 10
301.6000211914
 20
42.8731814196
 10
301.7089553987
 20
41.0435672494
 10
301.7452905104
 20
39.1683305884
  0
LWPOLYLINE
  5
118
330
1F
100
AcDbEntity
  8
0
  6
Continuous
 62
     1
370
    25
100
AcDbPolyline
 90
       18
 70
   128
 43
0.0
 10
308.8163583222
 20
35.0862900292
 10
308.7800232106
 20
36.9615266903
 10
308.6710890033
 20
38.7911408605
 10
308.4897689442
 20
40.5715509843
 10
308.2364179758
 20
42.2992718252
 10
307.9115320445
 20
43.9709212886
 10
307.5157471299
 20
45.5832270421
 10
307.0498379994
 20
47.1330329215
 10
306.5147166921
 20
48.6173051091
 10
305.9114307331
 20
50.0331380722
 10
305.2411610829
 20
51.3777602514
 10
304.5052198258
 20
52.6485394857
 10
303.7050476015
 20
53.8429881649
 10
302.8422107847
 20
54.9587680998
 10
301.9183984188
 20
55.9936950987
 10
300.9354189101
 20
56.9457432434
 10
299.8951964871
 20
57.813048855
 10
299.7721766239
 20
57.9071374892
  0
LWPOLYLINE
  5
119
330
1F
100
AcDbEntity
  8
0
  6
Continuous
 62
     1
370
    25
100
AcDbPolyline
 90
       53
 70
   128
 43
0.0
 10
247.2566220351
 20
-32.7223404493
 10
248.1823056293
 20
-33.0922917341
 10
249.4761011454
 20
-33.5138448841
 10
250.8133877783
 20
-33.8430616755
 10
252.1915477265
 20
-34.079297651
 10
253.6078831773
 20
-34.2220903676
 10
255.0596215874
 20
-34.2711603017
 10
256.5439211107
 20
-34.2264113968
 10
258.0578761613
 20
-34.0879312508
 10
259.5985231011
 20
-33.8559909452
 10
261.1628460412
 20
-33.5310445141
 10
262.7477827461
 20
-33.1137280552
 10
264.3502306278
 20
-32.6048584853
 10
265.9670528192
 20
-32.0054319402
 10
267.595084315
 20
-31.3166218258
 10
269.2311381671
 20
-30.5397765201
 10
270.8720117233
 20
-29.6764167343
 10
272.5144928965
 20
-28.7282325357
 10
274.1553664527
 20
-27.6970800393
 10
275.7914203049
 20
-26.5849777748
 10
277.4194518007
 20
-25.3941027343
 10
279.0362739921
 20
-24.1267861119
 10
280.6387218738
 20
-22.7855087391
 10
282.2236585787
 20
-21.3728962296
 10
283.7879815188
 20
-19.8917138387
 10
285.3286284585
 20
-18.3448610503
 10
286.8425835091
 20
-16.7353659016
 10
288.3268830325
 20
-15.0663790547
 10
289.7786214426
 20
-13.3411676299
 10
291.1949568933
 20
-11.5631088096
 10
292.5731168416
 20
-9.7356832273
 10
293.9104034744
 20
-7.8624681545
 10
295.2041989906
 20
-5.9471304976
 10
296.4519707245
 20
-3.9934196201
 10
297.6512761045
 20
-2.0051600027
 10
298.7997674339
 20
0.013756243
 10
299.8951964871
 20
2.0593769936
 10
300.9354189101
 20
4.1276978505
 10
301.9183984188
 20
6.2146699784
 10
302.8422107847
 20
8.3162080314
 10
303.7050476015
 20
10.4281981501
 10
304.5052198258
 20
12.5465060147
 10
305.2411610829
 20
14.666984938
 10
305.9114307331
 20
16.7854839829
 10
306.5147166921
 20
18.8978560881
 10
307.0498379994
 20
20.999966186
 10
307.5157471299
 20
23.0876992973
 10
307.9115320445
 20
25.1569685865
 10
308.2364179758
 20
27.2037233618
 10
308.4897689442
 20
29.2239570045
 10
308.6710890033
 20
31.2137148124
 10
308.7800232106
 20
33.1691017413
 10
308.8163583222
 20
35.0862900292
  0
LWPOLYLINE
  5
11A
330
1F
100
AcDbEntity
  8
0
  6
Continuous
 62
     1
370
    25
100
AcDbPolyline
 90
       28
 70
   128
 43
0.0
 10
294.6610278635
 20
39.0943815864
 10
294.4209784914
 20
39.2184222784
 10
293.9504658345
 20
39.3724734833
 10
293.4389511368
 20
39.4342598101
 10
292.8938934344
 20
39.4028802751
 10
292.323240896
 20
39.2787924626
 10
291.7353149205
 20
39.0638058522
 10
291.1386887926
 20
38.7610554329
 10
290.5420626646
 20
38.3749559875
 10
289.9541366891
 20
37.9111377153
 10
289.3834841507
 20
37.3763641312
 10
288.8384264483
 20
36.7784334383
 10
288.3269117506
 20
36.1260648124
 10
287.8563990938
 20
35.4287712572
 10
287.4337496118
 20
34.6967208828
 10
287.0651264859
 20
33.9405886321
 10
286.7559050713
 20
33.1714006161
 10
286.5105945125
 20
32.400373328
 10
286.3327719899
 20
31.6387500819
 10
286.2250305562
 20
30.8976370598
 10
286.1889413243
 20
30.1878413583
 10
286.2250305562
 20
29.5197133972
 10
286.3327719899
 20
28.9029959865
 10
286.5105945125
 20
28.3466822549
 10
286.7559050713
 20
27.8588845092
 10
287.0651264859
 20
27.4467159391
 10
287.4337496118
 20
27.1161868904
 10
287.5978483532
 20
27.0072331329
  0
LWPOLYLINE
  5
11B
330
1F
100
AcDbEntity
  8
0
  6
Continuous
 62
     1
370
    25
100
AcDbPolyline
 90
       28
 70
   128
 43
0.0
 10
268.144523569
 20
-6.833550956
 10
267.9044741969
 20
-6.709510264
 10
267.43396154
 20
-6.5554590591
 10
266.9224468424
 20
-6.4936727322
 10
266.37738914
 20
-6.5250522672
 10
265.8067366015
 20
-6.6491400798
 10
265.218810626
 20
-6.8641266902
 10
264.6221844981
 20
-7.1668771095
 10
264.0255583701
 20
-7.5529765549
 10
263.4376323946
 20
-8.0167948271
 10
262.8669798562
 20
-8.5515684112
 10
262.3219221538
 20
-9.1494991041
 10
261.8104074561
 20
-9.80186773
 10
261.3398947993
 20
-10.4991612852
 10
260.9172453173
 20
-11.2312116596
 10
260.5486221914
 20
-11.9873439103
 10
260.2394007768
 20
-12.7565319263
 10
259.994090218
 20
-13.5275592144
 10
259.8162676954
 20
-14.2891824605
 10
259.7085262617
 20
-15.0302954826
 10
259.6724370298
 20
-15.7400911841
 10
259.7085262617
 20
-16.4082191452
 10
259.8162676954
 20
-17.0249365559
 10
259.994090218
 20
-17.5812502875
 10
260.2394007768
 20
-18.0690480331
 10
260.5486221914
 20
-18.4812166032
 10
260.9172453173
 20
-18.811745652
 10
261.0813440587
 20
-18.9206994095
  0
LWPOLYLINE
  5
11C
330
1F
100
AcDbEntity
  8
0
  6
Continuous
 62
     1
370
    25
100
AcDbPolyline
 90
       42
 70
   128
 43
0.0
 10
273.1423440605
 20
32.4483524794
 10
272.5261274124
 20
32.7590564688
 10
271.8005176219
 20
33.0160086504
 10
271.0317364913
 20
33.1810747908
 10
270.2244075609
 20
33.2532621628
 10
269.3833862018
 20
33.2321366231
 10
268.5137304155
 20
33.1178252232
 10
267.6206704141
 20
32.9110154452
 10
266.7095771655
 20
32.6129510676
 10
265.7859300919
 20
32.2254246845
 10
264.8552841153
 20
31.7507669252
 10
263.9232362502
 20
31.1918324373
 10
262.9953919421
 20
30.5519827186
 10
262.0773313559
 20
29.8350659007
 10
261.1745758159
 20
29.0453936055
 10
260.2925546002
 20
28.1877150152
 10
259.4365722881
 20
27.2671883098
 10
258.611776858
 20
26.2893496452
 10
257.8231287266
 20
25.2600798581
 10
257.0753709167
 20
24.1855690982
 10
256.3730005317
 20
23.0722795997
 10
255.7202417096
 20
21.9269068164
 10
255.121020219
 20
20.7563391553
 10
254.5789398482
 20
19.5676165478
 10
254.0972607326
 20
18.3678881116
 10
253.6788797468
 20
17.1643691547
 10
253.3263130835
 20
15.9642977818
 10
253.0416811199
 20
14.7748913632
 10
252.8266956663
 20
13.6033031291
 10
252.6826496705
 20
12.456579149
 10
252.6104094419
 20
11.3416159559
 10
252.6104094419
 20
10.2651190696
 10
252.6826496705
 20
9.233562669
 10
252.8266956663
 20
8.2531506557
 10
253.0416811199
 20
7.3297793429
 10
253.3263130835
 20
6.4690019944
 10
253.6788797468
 20
5.6759954263
 10
254.0972607326
 20
4.9555288735
 10
254.5789398482
 20
4.3119353066
 10
255.121020219
 20
3.7490853731
 10
255.7202417096
 20
3.2703641187
 10
256.1228752707
 20
3.0147869925
  0
LWPOLYLINE
  5
11D
330
1F
100
AcDbEntity
  8
0
  6
Continuous
 62
     1
370
    25
100
AcDbPolyline
 90
       31
 70
   128
 43
0.0
 10
260.3762405831
 20
2.4423732085
 10
260.1127489318
 20
3.2477387838
 10
259.8977634782
 20
4.1711100966
 10
259.7537174823
 20
5.1515221099
 10
259.6814772538
 20
6.1830785105
 10
259.6814772538
 20
7.2595753968
 10
259.7537174823
 20
8.3745385899
 10
259.8977634782
 20
9.52126257
 10
260.1127489318
 20
10.6928508041
 10
260.3973808953
 20
11.8822572227
 10
260.7499475587
 20
13.0823285956
 10
261.1683285444
 20
14.2858475525
 10
261.6500076601
 20
15.4855759887
 10
262.1920880308
 20
16.6742985961
 10
262.7913095215
 20
17.8448662573
 10
263.4440683436
 20
18.9902390406
 10
264.1464387286
 20
20.1035285391
 10
264.8941965385
 20
21.178039299
 10
265.6828446698
 20
22.2073090861
 10
266.5076400999
 20
23.1851477507
 10
267.363622412
 20
24.1056744561
 10
268.2456436278
 20
24.9633530464
 10
269.1483991678
 20
25.7530253416
 10
270.066459754
 20
26.4699421595
 10
270.9943040621
 20
27.1097918782
 10
271.9263519272
 20
27.6687263661
 10
272.8569979038
 20
28.1433841253
 10
273.7806449774
 20
28.5309105085
 10
274.6917382259
 20
28.8289748861
 10
275.5847982273
 20
29.0357846641
 10
275.7550180112
 20
29.0651426108
  0
LWPOLYLINE
  5
11E
330
1F
100
AcDbEntity
  8
0
  6
Continuous
 62
     1
370
    25
100
AcDbPolyline
 90
       28
 70
   128
 43
0.0
 10
268.144523569
 20
54.4070099354
 10
267.9044741969
 20
54.5310506275
 10
267.43396154
 20
54.6851018324
 10
266.9224468424
 20
54.7468881592
 10
266.37738914
 20
54.7155086242
 10
265.8067366015
 20
54.5914208116
 10
265.218810626
 20
54.3764342012
 10
264.6221844981
 20
54.0736837819
 10
264.0255583701
 20
53.6875843365
 10
263.4376323946
 20
53.2237660644
 10
262.8669798562
 20
52.6889924803
 10
262.3219221538
 20
52.0910617873
 10
261.8104074561
 20
51.4386931615
 10
261.3398947993
 20
50.7413996062
 10
260.9172453173
 20
50.0093492318
 10
260.5486221914
 20
49.2532169812
 10
260.2394007768
 20
48.4840289651
 10
259.994090218
 20
47.713001677
 10
259.8162676954
 20
46.9513784309
 10
259.7085262617
 20
46.2102654088
 10
259.6724370298
 20
45.5004697073
 10
259.7085262617
 20
44.8323417462
 10
259.8162676954
 20
44.2156243355
 10
259.994090218
 20
43.6593106039
 10
260.2394007768
 20
43.1715128583
 10
260.5486221914
 20
42.7593442882
 10
260.9172453173
 20
42.4288152395
 10
261.0813440588
 20
42.319861482
  0
LWPOLYLINE
  5
11F
330
1F
100
AcDbEntity
  8
0
  6
Continuous
 62
     1
370
    25
100
AcDbPolyline
 90
       28
 70
   128
 43
0.0
 10
241.6280192746
 20
8.4790773931
 10
241.3879699024
 20
8.6031180851
 10
240.9174572455
 20
8.75716929
 10
240.4059425479
 20
8.8189556168
 10
239.8608848455
 20
8.7875760818
 10
239.290232307
 20
8.6634882692
 10
238.7023063315
 20
8.4485016589
 10
238.1056802036
 20
8.1457512395
 10
237.5090540756
 20
7.7596517941
 10
236.9211281001
 20
7.295833522
 10
236.3504755617
 20
6.7610599379
 10
235.8054178593
 20
6.1631292449
 10
235.2939031616
 20
5.5107606191
 10
234.8233905048
 20
4.8134670638
 10
234.4007410228
 20
4.0814166894
 10
234.0321178969
 20
3.3252844388
 10
233.7228964823
 20
2.5560964227
 10
233.4775859235
 20
1.7850691346
 10
233.2997634009
 20
1.0234458885
 10
233.1920219672
 20
0.2823328664
 10
233.1559327353
 20
-0.427462835
 10
233.1920219672
 20
-1.0955907962
 10
233.2997634009
 20
-1.7123082069
 10
233.4775859235
 20
-2.2686219385
 10
233.7228964823
 20
-2.7564196841
 10
234.0321178969
 20
-3.1685882542
 10
234.4007410228
 20
-3.4991173029
 10
234.5648397643
 20
-3.6080710604
  0
ENDSEC
  0
SECTION
  2
OBJECTS
  0
DICTIONARY
  5
C
330
0
100
AcDbDictionary
281
     1
  3
ACAD_GROUP
350
D
  3
ACAD_LAYOUT
350
1A
  3
ACAD_MLINESTYLE
350
17
  3
ACAD_PLOTSETTINGS
350
19
  3
ACAD_PLOTSTYLENAME
350
E
  3
ACAD_SCALELIST
350
47
  3
DWGPROPS
350
120
  0
DICTIONARY
  5
D
102
{ACAD_REACTORS
330
C
102
}
330
C
100
AcDbDictionary
281
     1
  0
DICTIONARY
  5
1A
102
{ACAD_REACTORS
330
C
102
}
330
C
100
AcDbDictionary
281
     1
  3
Layout1
350
1E
  3
Layout2
350
26
  3
Model
350
22
  0
DICTIONARY
  5
17
102
{ACAD_REACTORS
330
C
102
}
330
C
100
AcDbDictionary
281
     1
  3
Standard
350
18
  0
DICTIONARY
  5
19
102
{ACAD_REACTORS
330
C
102
}
330
C
100
AcDbDictionary
281
     1
  0
ACDBDICTIONARYWDFLT
  5
E
102
{ACAD_REACTORS
330
C
102
}
330
C
100
AcDbDictionary
281
     1
  3
Normal
350
F
100
AcDbDictionaryWithDefault
340
F
  0
DICTIONARY
  5
47
102
{ACAD_REACTORS
330
C
102
}
330
C
100
AcDbDictionary
281
     1
  3
A0
350
48
  3
A1
350
49
  3
A2
350
4A
  3
A3
350
4B
  3
A4
350
4C
  3
A5
350
4D
  3
A6
350
4E
  3
A7
350
4F
  3
A8
350
50
  3
A9
350
51
  3
B0
350
52
  3
B1
350
53
  3
B2
350
54
  3
B3
350
55
  3
B4
350
56
  3
B5
350
57
  3
B6
350
58
  3
B7
350
59
  3
B8
350
5A
  3
B9
350
5B
  3
C0
350
5C
  3
C1
350
5D
  3
C2
350
5E
  3
C3
350
5F
  3
C4
350
60
  3
C5
350
61
  3
C6
350
62
  3
C7
350
63
  3
C8
350
64
  3
C9
350
65
  3
D0
350
66
  3
D1
350
67
  3
D2
350
68
  0
XRECORD
  5
120
102
{ACAD_REACTORS
330
C
102
}
330
C
100
AcDbXrecord
280
     1
  1
DWGPROPS COOKIE
  2

  3

  4

  6

  7

  8
b.kav
  9

300
=
301
=
302
=
303
=
304
=
305
=
306
=
307
=
308
=
309
=
 40
0.0
 41
2459741.467387835
 42
2459741.467389722
  1

 90
        0
  0
LAYOUT
  5
1E
102
{ACAD_REACTORS
330
1A
102
}
330
1A
100
AcDbPlotSettings
  1

  2
none_device
  4

  6

 40
0.0
 41
0.0
 42
0.0
 43
0.0
 44
0.0
 45
0.0
 46
0.0
 47
0.0
 48
0.0
 49
0.0
140
0.0
141
0.0
142
1.0
143
1.0
 70
   688
 72
     1
 73
     0
 74
     5
  7

 75
    16
147
1.0
148
0.0
149
0.0
100
AcDbLayout
  1
Layout1
 70
     1
 71
     1
 10
0.0
 20
0.0
 11
420.0
 21
297.0
 12
0.0
 22
0.0
 32
0.0
 14
1.0000000000E+20
 24
1.0000000000E+20
 34
1.0000000000E+20
 15
-1.0000000000E+20
 25
-1.0000000000E+20
 35
-1.0000000000E+20
146
0.0
 13
0.0
 23
0.0
 33
0.0
 16
1.0
 26
0.0
 36
0.0
 17
0.0
 27
1.0
 37
0.0
 76
     0
330
1B
  0
LAYOUT
  5
26
102
{ACAD_REACTORS
330
1A
102
}
330
1A
100
AcDbPlotSettings
  1

  2
none_device
  4

  6

 40
0.0
 41
0.0
 42
0.0
 43
0.0
 44
0.0
 45
0.0
 46
0.0
 47
0.0
 48
0.0
 49
0.0
140
0.0
141
0.0
142
1.0
143
1.0
 70
   688
 72
     1
 73
     0
 74
     5
  7

 75
    16
147
1.0
148
0.0
149
0.0
100
AcDbLayout
  1
Layout2
 70
     1
 71
     2
 10
0.0
 20
0.0
 11
0.0
 21
0.0
 12
0.0
 22
0.0
 32
0.0
 14
0.0
 24
0.0
 34
0.0
 15
0.0
 25
0.0
 35
0.0
146
0.0
 13
0.0
 23
0.0
 33
0.0
 16
1.0
 26
0.0
 36
0.0
 17
0.0
 27
1.0
 37
0.0
 76
     0
330
23
  0
LAYOUT
  5
22
102
{ACAD_REACTORS
330
1A
102
}
330
1A
100
AcDbPlotSettings
  1

  2
none_device
  4
Letter_(8.50_x_11.00_Inches)
  6

 40
6.35
 41
6.35
 42
6.35000508
 43
6.35000508
 44
215.9
 45
279.4
 46
0.0
 47
0.0
 48
0.0
 49
0.0
140
0.0
141
0.0
142
1.0
143
1.0
 70
  1712
 72
     1
 73
     0
 74
     0
  7

 75
     0
147
1.0
148
0.0
149
0.0
100
AcDbLayout
  1
Model
 70
     1
 71
     0
 10
0.0
 20
0.0
 11
279.4
 21
215.9
 12
0.0
 22
0.0
 32
0.0
 14
0.0
 24
0.0
 34
0.0
 15
279.4
 25
215.9
 35
0.0
146
0.0
 13
0.0
 23
0.0
 33
0.0
 16
1.0
 26
0.0
 36
0.0
 17
0.0
 27
1.0
 37
0.0
 76
     0
330
1F
331
29
  0
MLINESTYLE
  5
18
102
{ACAD_REACTORS
330
17
102
}
330
17
100
AcDbMlineStyle
  2
Standard
 70
     0
  3

 62
   256
 51
90.0
 52
90.0
 71
     2
 49
0.5
 62
   256
  6
BYLAYER
 49
-0.5
 62
   256
  6
BYLAYER
  0
ACDBPLACEHOLDER
  5
F
102
{ACAD_REACTORS
330
E
102
}
330
E
  0
SCALE
  5
48
102
{ACAD_REACTORS
330
47
102
}
330
47
100
AcDbScale
 70
     0
300
1:1
140
1.0
141
1.0
290
     1
  0
SCALE
  5
49
102
{ACAD_REACTORS
330
47
102
}
330
47
100
AcDbScale
 70
     0
300
1:2
140
1.0
141
2.0
290
     0
  0
SCALE
  5
4A
102
{ACAD_REACTORS
330
47
102
}
330
47
100
AcDbScale
 70
     0
300
1:4
140
1.0
141
4.0
290
     0
  0
SCALE
  5
4B
102
{ACAD_REACTORS
330
47
102
}
330
47
100
AcDbScale
 70
     0
300
1:5
140
1.0
141
5.0
290
     0
  0
SCALE
  5
4C
102
{ACAD_REACTORS
330
47
102
}
330
47
100
AcDbScale
 70
     0
300
1:8
140
1.0
141
8.0
290
     0
  0
SCALE
  5
4D
102
{ACAD_REACTORS
330
47
102
}
330
47
100
AcDbScale
 70
     0
300
1:10
140
1.0
141
10.0
290
     0
  0
SCALE
  5
4E
102
{ACAD_REACTORS
330
47
102
}
330
47
100
AcDbScale
 70
     0
300
1:16
140
1.0
141
16.0
290
     0
  0
SCALE
  5
4F
102
{ACAD_REACTORS
330
47
102
}
330
47
100
AcDbScale
 70
     0
300
1:20
140
1.0
141
20.0
290
     0
  0
SCALE
  5
50
102
{ACAD_REACTORS
330
47
102
}
330
47
100
AcDbScale
 70
     0
300
1:30
140
1.0
141
30.0
290
     0
  0
SCALE
  5
51
102
{ACAD_REACTORS
330
47
102
}
330
47
100
AcDbScale
 70
     0
300
1:40
140
1.0
141
40.0
290
     0
  0
SCALE
  5
52
102
{ACAD_REACTORS
330
47
102
}
330
47
100
AcDbScale
 70
     0
300
1:50
140
1.0
141
50.0
290
     0
  0
SCALE
  5
53
102
{ACAD_REACTORS
330
47
102
}
330
47
100
AcDbScale
 70
     0
300
1:100
140
1.0
141
100.0
290
     0
  0
SCALE
  5
54
102
{ACAD_REACTORS
330
47
102
}
330
47
100
AcDbScale
 70
     0
300
2:1
140
2.0
141
1.0
290
     0
  0
SCALE
  5
55
102
{ACAD_REACTORS
330
47
102
}
330
47
100
AcDbScale
 70
     0
300
4:1
140
4.0
141
1.0
290
     0
  0
SCALE
  5
56
102
{ACAD_REACTORS
330
47
102
}
330
47
100
AcDbScale
 70
     0
300
8:1
140
8.0
141
1.0
290
     0
  0
SCALE
  5
57
102
{ACAD_REACTORS
330
47
102
}
330
47
100
AcDbScale
 70
     0
300
10:1
140
10.0
141
1.0
290
     0
  0
SCALE
  5
58
102
{ACAD_REACTORS
330
47
102
}
330
47
100
AcDbScale
 70
     0
300
100:1
140
100.0
141
1.0
290
     0
  0
SCALE
  5
59
102
{ACAD_REACTORS
330
47
102
}
330
47
100
AcDbScale
 70
     0
300
1/128" = 1'-0"
140
0.0078125
141
12.0
290
     0
  0
SCALE
  5
5A
102
{ACAD_REACTORS
330
47
102
}
330
47
100
AcDbScale
 70
     0
300
1/64" = 1'-0"
140
0.015625
141
12.0
290
     0
  0
SCALE
  5
5B
102
{ACAD_REACTORS
330
47
102
}
330
47
100
AcDbScale
 70
     0
300
1/32" = 1'-0"
140
0.03125
141
12.0
290
     0
  0
SCALE
  5
5C
102
{ACAD_REACTORS
330
47
102
}
330
47
100
AcDbScale
 70
     0
300
1/16" = 1'-0"
140
0.0625
141
12.0
290
     0
  0
SCALE
  5
5D
102
{ACAD_REACTORS
330
47
102
}
330
47
100
AcDbScale
 70
     0
300
3/32" = 1'-0"
140
0.09375
141
12.0
290
     0
  0
SCALE
  5
5E
102
{ACAD_REACTORS
330
47
102
}
330
47
100
AcDbScale
 70
     0
300
1/8" = 1'-0"
140
0.125
141
12.0
290
     0
  0
SCALE
  5
5F
102
{ACAD_REACTORS
330
47
102
}
330
47
100
AcDbScale
 70
     0
300
3/16" = 1'-0"
140
0.1875
141
12.0
290
     0
  0
SCALE
  5
60
102
{ACAD_REACTORS
330
47
102
}
330
47
100
AcDbScale
 70
     0
300
1/4" = 1'-0"
140
0.25
141
12.0
290
     0
  0
SCALE
  5
61
102
{ACAD_REACTORS
330
47
102
}
330
47
100
AcDbScale
 70
     0
300
3/8" = 1'-0"
140
0.375
141
12.0
290
     0
  0
SCALE
  5
62
102
{ACAD_REACTORS
330
47
102
}
330
47
100
AcDbScale
 70
     0
300
1/2" = 1'-0"
140
0.5
141
12.0
290
     0
  0
SCALE
  5
63
102
{ACAD_REACTORS
330
47
102
}
330
47
100
AcDbScale
 70
     0
300
3/4" = 1'-0"
140
0.75
141
12.0
290
     0
  0
SCALE
  5
64
102
{ACAD_REACTORS
330
47
102
}
330
47
100
AcDbScale
 70
     0
300
1" = 1'-0"
140
1.0
141
12.0
290
     0
  0
SCALE
  5
65
102
{ACAD_REACTORS
330
47
102
}
330
47
100
AcDbScale
 70
     0
300
1-1/2" = 1'-0"
140
1.5
141
12.0
290
     0
  0
SCALE
  5
66
102
{ACAD_REACTORS
330
47
102
}
330
47
100
AcDbScale
 70
     0
300
3" = 1'-0"
140
3.0
141
12.0
290
     0
  0
SCALE
  5
67
102
{ACAD_REACTORS
330
47
102
}
330
47
100
AcDbScale
 70
     0
300
6" = 1'-0"
140
6.0
141
12.0
290
     0
  0
SCALE
  5
68
102
{ACAD_REACTORS
330
47
102
}
330
47
100
AcDbScale
 70
     0
300
1'-0" = 1'-0"
140
12.0
141
12.0
290
     0
  0
ENDSEC
  0
EOF
